Song name
# A B C D E F G H I J K L M N O P Q R S T U V W X Y Z

Alesana - Curse Of The Virgin Canvas tab

Tuning: Drop D (DADGBE)

Well, basicaly i started tabbing this but have been really
busy latly, so i havent had time to finish. If you find 
any mistakes so far or want to add onto this just let me 
know via comment or email (mcmbtabz@hotmail.com). Its a 
really good song off an amazing album, sooo enjoy ^__^


Intro
e|-----------------------|
B|-----------------------|
G|---10-9-7h9-7h10-9-7---|
D|-7---------------------|x8
A|-----------------------|
D|-----------------------|

Verse  
e|-----------------------------------------------|
B|-----------------------------------------------|
G|-77-7-7-7-7-7-777--1010-10-10-10-10-10-101010--|
D|-xx-x-x-x-x-x-xxx--x-x--x--x--x--x--x--x-x-x---|
A|-55-5-5-5-5-5-555--8-8--8--8--8--8--8--8-8-8---|
D|-----------------------------------------------|
                                                    X2
e|-----------------------------------------------|
B|-----------------------------------------------|
G|--------7--9~--------------7--11~~-------------|
D|-----9----------9-------9----------------------|
A|--9---------------9--9-------------------------|
D|-----------------------------------------------|

Chorus
e|------------------------------------|
B|------------------------------------|
G|-7777777777777777-5555555555555555--|
D|-7777777777777777-5555555555555555--|
A|-5555555555555555-3333333333333333--|
D|------------------------------------|
                                         X2
e|------------------------------------|
B|------------------------------------|
G|--7--9-10-9~--10-9-5~---------------|
D|------------------------------------|
A|------------------------------------|
D|------------------------------------|

[[Repeat Verse]]

[[Repeat Chorus]]
Tap to rate this tab
 
# A B C D E F G H I J K L M N O P Q R S T U V W X Y Z