Song name
# A B C D E F G H I J K L M N O P Q R S T U V W X Y Z

Alesana - Curse Of The Virgin Canvas tab

Curse of the Virgin Canvas
by Alesana tabbed by me :D





Intro:
e|--------------------------------------------------------------------------|
B|--------------------------------------------------------------------------|
G|---10-9-7-10---10-9-7-----------------------------------------------------|
D|-7-----------7------------------------------------------------------------|    
A|--------------------------------------------------------------------------|
D|--------------------------------------------------------------------------|


e|--------------------------------------------------------------------------|
B|--------------------------------------------------------------------------|
G|----14-12-10-12----14-12-10-----------------------------------------------|
D|-12-------------12--------------------------------------------------------|    
A|--------------------------------------------------------------------------|
D|--------------------------------------------------------------------------|




Verse:
e|--------------------------------------------------------------------------|
B|--------------------------------------------------------------------------|
G|-7-7-7-7-7-7-7-7---------------------------9-7---9-10---------------------|
D|-X-x-x-x-x-x-x-x----3-3-3-3-3-3-3-3/7----7-----7--------------------------|    
A|-5-5-5-5-5-5-5-5----------------------------------------------------------|
D|--------------------------------------------------------------------------|




 (Nothing is played)




Chorus:
e|--------------------------------------------------------------------------|
B|--------------------------------------------------------------------------|
G|-10-7-9-7-9-7-10-7-9-7-9-7-10-7-9-7-----------------------------------|
D|---------------------------------------------10----12---------------------|    
A|------------------------------------------------12----12---10/12-10-7-----|
D|--------------------------------------------------------------------------|




Verse:
e|--------------------------------------------------------------------------|
B|--------------------------------------------------------------------------|
G|-7-7-7-7-7-7-7-7---------------------------9-7---9-10---------------------|
D|-X-x-x-x-x-x-x-x----3-3-3-3-3-3-3-3/7----7-----7--------------------------|    
A|-5-5-5-5-5-5-5-5----------------------------------------------------------|
D|--------------------------------------------------------------------------|




 (Nothing is played)




Chorus:
e|--------------------------------------------------------------------------|
B|--------------------------------------------------------------------------|
G|-10-7-9-7-9-7-10-7-9-7-9-7-10-7-9-7-  --------------------------------|
D|-----------------------------------------------10----12-------------------|    
A|--------------------------------------------------12----12---10/12-10-7---|
D|--------------------------------------------------------------------------|




Outro:
e|--------------------------------------------------------------------------|
B|--------------------------------------------------------------------------|
G|-------------9-10---------------------------------------------------------|
D|-12----10-12--------------------------------------------------------------|    
A|----12--------------------------------------------------------------------|
D|--------------------------------------------------------------------------|




Bridge pt. 1:
e|--------------------------------------------------------------------------|
B|--------------------------------------------------------------------------|
G|--------------------------------------------------------------------------|
D|--------------------------------------------------------------------------|
A|--------------------------------------------------------------------------|
D|--------------------------------------------------------------------------|
I don't know this part, help me out guys (:





Bridge pt. 2
e|--------------------------------------------------------------------------|
B|---------------------------------8----------8-----------------------------|
G|-----------------------------------10-9-------10-9----10p9----------------|
D|-7h9-9-9-9h10-7h9-9-9-9-  ----------10---------10---------------------|    
A|--------------------------------------------------------------------------|
D|--------------------------------------------------------------------------|




Chorus:
e|--------------------------------------------------------------------------|
B|--------------------------------------------------------------------------|
G|-10-7-9-7-9-7-10-7-9-7-9-7-10-7-9-7-  --------------------------------|
D|-----------------------------------------------10----12-------------------|    
A|--------------------------------------------------12----12---10/12-10-7---|
D|--------------------------------------------------------------------------|




Outro:
e|--------------------------------------------------------------------------|
B|--------------------------------------------------------------------------|
G|-------------9-10---------------------------------------------------------|
D|-12----10-12--------------------------------------------------------------|    
A|----12--------------------------------------------------------------------|
D|--------------------------------------------------------------------------|
Tap to rate this tab
# A B C D E F G H I J K L M N O P Q R S T U V W X Y Z