Song name
# A B C D E F G H I J K L M N O P Q R S T U V W X Y Z

Alesana - Curse Of The Virgin Canvas tab

Curse of the Virgin Canvas
by Alesana tabbed by me :D

First time tabbing XD
I re-tabbed becuz i made mistakes in the first one =[
comment and rate to lemme know how i did pls (:
I took the rhythm part of the chorus from version 2 of the song
So thank him, otherwise it's me (:





Intro:
e|-----------------------------------------------------------------------|
B|-----------------------------------------------------------------------|
G|---10-9-7-10---10-9-7--------------------------------------------------|
D|-7-----------7---------------------------------------------------------|
A|-----------------------------------------------------------------------|
D|-----------------------------------------------------------------------|

x4


e|-----------------------------------------------------------------------|
B|-----------------------------------------------------------------------|
G|----14-12-10-12----14-12-10--------------------------------------------|
D|-12-------------12-----------------------------------------------------|
A|-----------------------------------------------------------------------|
D|-----------------------------------------------------------------------|

x4




"This is a nightmare...I kiss you softly goodbye"
Verse:
e|-----------------------------------------------------------------------|
B|-----------------------------------------------------------------------|
G|-7-77-7-7-7-7-7-777-------------------------9-7~---9-10~---------------|
D|-x-xx-x-x-x-x-x-xxx-3-33-3-3-3-3-333/7----7------7---------------------|
A|-5-55-5-5-5-5-5-555----------------------------------------------------|
D|-----------------------------------------------------------------------|

x2




"Baby lay in my arms...be able to speak again"
 (Nothing is played)




"My angel lie...oh ecstacy, you torture me"
Chorus:
e|-----------------------------------------------------------------------|
B|-----------------------------------------------------------------------|
G|-10-7-9-7-9-7-10-7-9-7-9-7-10-7-9-7-----7-9-10-9~---10-9-5---------|
D|-----------------------------------------------------------------------|
A|-----------------------------------------------------------------------|
D|-----------------------------------------------------------------------|

x2




"I watch the blood...and yet so morbibly still"
Verse:
e|-----------------------------------------------------------------------|
B|-----------------------------------------------------------------------|
G|-7-77-7-7-7-7-7-777-------------------------9-7~---9-10~---------------|
D|-x-xx-x-x-x-x-x-xxx-3-33-3-3-3-3-333/7----7------7---------------------|
A|-5-55-5-5-5-5-5-555----------------------------------------------------|
D|-----------------------------------------------------------------------|

x2




"Baby lay in my arms...be able to speak again"
 (Nothing is played)




"My angel lie...oh ecstacy, you torture me"
Chorus:
e|-----------------------------------------------------------------------|
B|-----------------------------------------------------------------------|
G|-10-7-9-7-9-7-10-7-9-7-9-7-10-7-9-7-----7-9-10-9~---10-9-5---------|
D|-----------------------------------------------------------------------|
A|-----------------------------------------------------------------------|
D|-----------------------------------------------------------------------|

x2



"Sweet revenge...he will pay my dear"
Outro:
e|-----------------------------------------------------------------------|
B|-----------------------------------------------------------------------|
G|-------------9-10------------------------------------------------------|
D|-12----10-12-----------------------------------------------------------|
A|----12-----------------------------------------------------------------|
D|-----------------------------------------------------------------------|

x4



"Empty eyes accuse...story of innocence lost"
Bridge pt. 1:
e|-----------------------------------------------------------------------|
B|-----------------------------------------------------------------------|
G|-----------------------------------------------------------------------|
D|-----------------------------------------------------------------------|
A|-----------------------------------------------------------------------|
D|-----------------------------------------------------------------------|
I don't know this part, help me out guys (:




"Empty eyes accuse...I'm a monser"
Bridge pt. 2
e|-----------------------------------------------------------------------|
B|---------------------------------8-----------8-------------------------|
G|-----------------------------------10-9--------10-9----10p9------------|
D|-7h9-9-9-9h10-7h9-999---------------10~---------10-----------------|
A|-----------------------------------------------------------------------|
D|-----------------------------------------------------------------------|

x3




"Such an awful...able to sleep again"
 (Nothing is played)




"My angel lie...ecstacy, you torture me"
Chorus:
e|-----------------------------------------------------------------------|
B|-----------------------------------------------------------------------|
G|-10-7-9-7-9-7-10-7-9-7-9-7-10-7-9-7-----7-9-10-9~---10-9-5---------|
D|-----------------------------------------------------------------------|
A|-----------------------------------------------------------------------|
D|-----------------------------------------------------------------------|

x2




"Sweet revenge...he will pay my dear"
Outro:
e|-----------------------------------------------------------------------|
B|-----------------------------------------------------------------------|
G|-------------9-10------------------------------------------------------|
D|-12----10-12-----------------------------------------------------------|
A|----12-----------------------------------------------------------------|
D|-----------------------------------------------------------------------|

x4







Hope you guys like it!
My first version sucks btw
This is much more edited as you can tell XD
Tap to rate this tab
# A B C D E F G H I J K L M N O P Q R S T U V W X Y Z