Song name
# A B C D E F G H I J K L M N O P Q R S T U V W X Y Z

Alesana - In Her Tomb By The Sounding Sea tab

Song Title: In Her Tomb By The Sounding Sea
Artist: Alesana
Tabbed by: Brian Christopher Sicat
Tuning: Drop D

*Im sure this is pretty accurate. The only thing missing is the plucking part at the 
and during the bridge. Sorry for that, I'm not that good yet in ear-transcribing plucked 
Anyway, Enjoy! :)

INTRO
("So I'm thinking we should maybe...")
e |-------------------------------------------------|
b |-------------------------------------------------|
G |-------------------------------------------------|
D |-777-------777-------333-------555---------------|
A |-777-------777-------333-------555---------------|
D |-777-------777-------333-------555---------------|
    ***       ***       ***       ***
("I will save your life...")
e |-------------------------------------------------|
b |-------------------------------------------------|
G |-------------------------------------------------|
D |-777------733-333------3555555555555555----------|
A |-777-(8x)-733-333-(3x)-3555555555555555----------|
D |-777------733-333------3555555555555555----------|
    ***      *** ***      * **************

VERSE
("I can see its not the first time...)
e |--------------|
b |--------------|
G |--------------|
D |-7--5--x------|(4x)
A |-7--5--x-(3x)-|
D |-7--5--x------|

then
("Rest assured it's not the last time...")
e |----------------------------------------------------|
b |----------------------------------------------------|
G |----------------------------------------------------|
D |-3--3--x------5--5--x------7--5--x------7--5--x-----|
A |-3--3--x-(3x)-5--5--x-(3x)-7--5--x-(3x)-7--5--x(3x)-|
D |-3--3--x------5--5--x------7--5--x------7--5--x-----|


PRE-CHORUS
("you took her once, shame on you...)
Guitar 1:
e |--------------------------------------------|
b |--------------------------------------------|
G |--------------------------------------------|
D |-3--3-3-3-5-5-5557--7-7-7-5-5-5553----------|
A |-3--3-3-3-5-5-5557--7-7-7-5-5-5553----------|
D |-3--3-3-3-5-5-5557--7-7-7-5-5-5553----------|

e |--------------------------------------------|
b |--------------------------------------------|
G |--------------------------------------------|
D |-3--3-3-3-5-5-5557--7-7-7-5-5-555-----------|
A |-3--3-3-3-5-5-5557--7-7-7-5-5-555-----------|
D |-3--3-3-3-5-5-5557--7-7-7-5-5-555-----------|

Guitar 2:

e |----------------------------------------------------------------|
b |-13--13-13-13-12-12-121212-13--13-13-13-12-12-121212-10---------|
G |--x---x--x--x--x--x--x-x-x--x---x--x--x--x--x--x-x-x--x---------|
D |-10--10-10-10--9--9--9-9-9-10--10-10-10--9--9--9-9-9--7---------|
A |----------------------------------------------------------------|
D |----------------------------------------------------------------|

e |----------------------------------------------------------------|
b |-13--13-13-13-12-12-121212-13--13-13-13-12-12-121212------------|
G |--x---x--x--x--x--x--x-x-x--x---x--x--x--x--x--x-x-x------------|
D |-10--10-10-10--9--9--9-9-9-10--10-10-10--9--9--9-9-9------------|
A |----------------------------------------------------------------|
D |----------------------------------------------------------------|


CHORUS:
("whisper softly, and tell me that you love me...")
e |----------------------------------------------------------------|
b |----------------------------------------------------------------|
G |------------------7------9------10------------------------------|
D |-10-------3-------7-(8x)-9-(8x)-10-(16x)------------------------|
A |-10-(16x)-3-(16x)-5------7-------8------------------------------|
D |-10-------3-----------------------------------------------------|

e |------------------------------------------------------------------------|
b |------------------------------------------------------------------------|
G |------------------7------9------10-------7------9------10------12-------|
D |-10-------3-------7-(8x)-9-(8x)-10-(16x)-7-(8x)-9-(8x)-10-(8x)-12-(8x)--|
A |-10-(16x)-3-(16x)-5------7-------8-------5------7-------8------10-------|
D |-10-------3-------------------------------------------------------------|


REPEAT VERSE
REPEAT PRE-CHORUS
REPEAT CHORUS

BRIDGE
(I've lost it all, I'm falling apart...)
Guitar 1:
e |------------------------------|
b |------------------------------|
G |------------------------------|
D |-7-------5-------2-------3----|
A |-7-------5-------2-------3----|
D |-7-------5-------2-------3----|

then
("you've ripped out my heart...)
Guitar 1:
e |------------------------------|
b |------------------------------|
G |------------------------------|
D |-7-------5-------2-------3----|
A |-7-------5-------2-------3----|
D |-7-------5-------2-------3----|

Guitar 2:
e |------------------------------|
b |------------------------------|
G |-121212-------1212-1111-12-9--|
D |--x-x-x-(16x)-x-x---x-x--x-x--|
A |-101010-------1010--9-9-10-7--|
D |------------------------------|

then
("I don't want to go, it's happening again...)
Guitar 1:
e |-------------------------------------|
b |-------------------------------------|
G |-------------------------------------|
D |-777------555------222------333------|
A |-777-(4x)-555-(4x)-222-(4x)-333-(4x)-|
D |-777------555------222------333------|

Guitar 2:
e |------------------------------------|
b |------------------------------------|
G |-121212-------999------101010-------|
D |--x-x-x--(8x)-xxx-(4x)--x-x-x-(4x)--|
A |-101010-------777-------8-8-8-------|
D |------------------------------------|

then
("I don't want to go, it's happening again...)
Guitar 1:
e |-------------------------------------|
b |-------------------------------------|
G |-------------------------------------|
D |-777------555------222------333------|
A |-777-(4x)-555-(4x)-222-(4x)-333-(4x)-|
D |-777------555------222------333------|

Guitar 2:
e |------------------------------------|
b |------------------------------------|
G |-121212-------999------101010-------|
D |--x-x-x--(8x)-xxx-(4x)--x-x-x-(4x)--|
A |-101010-------777-------8-8-8-------|
D |------------------------------------|

REPEAT CHORUS

LAST PART OF CHORUS
("I'm falling apart, I've lost it all...)
e |---------------------------|
b |---------------------------|
G |-7------9------10----------|
D |-7------9------10----------|
A |-5------7-------8----------|
D |---------------------------|

OUTRO
e |-----12------10------10------8------8------7------7-----------|
b |-10------10------10------10-----10-----10-----10-----10--10---|
G |--------------------------------------------------------------|
D |--------------------------------------------------------------|
A |--------------------------------------------------------------|
D |--------------------------------------------------------------|
Tap to rate this tab
# A B C D E F G H I J K L M N O P Q R S T U V W X Y Z