Song name
# A B C D E F G H I J K L M N O P Q R S T U V W X Y Z

Alesana - Annabel tab

This is my first tab and I saw that nobody posted this song yet so I decided to do
what I knew which was the intro, I hope it helps

E |---4--------------------4-----------------------------|
B |--------2-----2--2/4----------2-----2--2/4--1h2p1-----|
G |-----3-----3---------------3-----3--------------------|
D |------------------------------------------------------|
A |------------------------------------------------------|
E |------------------------------------------------------|


E |---4--------------------------------------------------|
B |---------2-----2--2/4---2b--1-------------------------|
G |------3-----3-----------------------------------------|  repeat
D |------------------------------------------------------|
A |------------------------------------------------------|
E |------------------------------------------------------|
Tap to rate this tab
 
# A B C D E F G H I J K L M N O P Q R S T U V W X Y Z