Song name
# A B C D E F G H I J K L M N O P Q R S T U V W X Y Z

Alesana - A Lunatics Lament tab

-------------------------------------------------------
A Lunatics Lament Solo Tab
-------------------------------------------------------
This is my first tab ive posted, I learned it all by ear and im pretty sure this is how it goes.




e   |----------------------10---------------------------------|
B   |---------------8--------------8--10----------------------| 
G   |--7--9--10----------------------------7-----10--9--5-----|
D   |---------------------------------------------------------|
A   |---------------------------------------------------------|
D   |---------------------------------------------------------|


e   |------------------10-------------------------------------|
B   |-------------------------8--10---------------------------|
G   |--7--10--9--5-------------------7---10--9--5-------------|
D   |---------------------------------------------------------|
A   |---------------------------------------------------------|
D   |---------------------------------------------------------|
  

e   |----------------------10---------------------------------|
B   |---------------8--------------8--10----------------------|
G   |--7--9--10---------------------------7-----10--9--5------|
D   |---------------------------------------------------------|
A   |---------------------------------------------------------|
D   |---------------------------------------------------------|


e   |-------------------10------------------------------------|
B   |---------------------------8--10-------------------------|
G   |---7--10--9--5--------------------7--10--9--5--5/7~~-----|
D   |---------------------------------------------------------|
A   |---------------------------------------------------------|
D   |---------------------------------------------------------|





please comment and rate
[dudedontdrinkthat]
Tap to rate this tab
 
# A B C D E F G H I J K L M N O P Q R S T U V W X Y Z