Song name
# A B C D E F G H I J K L M N O P Q R S T U V W X Y Z

Alesana - Curse Of The Virgin Canvas tab

-------------------------------------------------------------------------------
			    Curse of the Virgin Canvas - Alesana
-------------------------------------------------------------------------------


Tuning: Drop D

Intro:

Guitar 1:
e|----------------------|
B|----------------------|
G|----10-9---9---10-9-7-|
D|--7-------7---7-------| x 8
A|----------------------|
D|----------------------|

Guitar 2
e|------|---------|------|------|------|---------|------|-----------------------|
B|------|---------|------|------|------|---------|------|-----------------------|
G|------|---------|------|------|------|---------|------|-----------------------|
D|-0~---|-10~--7~-|-8~---|-10~--|-0~---|-10~--7~-|-8~---|-10~-------------------|
A|-0~---|-10~--7~-|-8~---|-10~--|-0~---|-10~--7~-|-8~---|-10~--1010101010-1012\-|
D|-0~---|-10~--7~-|-8~---|-10~--|-0~---|-10~--7~-|-8~---|-10~--1010101010-1012\-|

Guitar 3
e|------|---------|------|------|---------------------------|
B|------|---------|------|------|---------------------------|
G|------|---------|------|------|-----14-12---12---14-12-10-|
D|-0~---|-10~--7~-|-8~---|-10~--|--12-------12---12---------| x 4
A|-0~---|-10~--7~-|-8~---|-10~--|---------------------------|
D|-0~---|-10~--7~-|-8~---|-10~--|---------------------------|

Verse:

Guitar 1
e|-------------------|------------------|-----------------|-----------------|
B|-------------------|------------------|-----------------|-----------------|
G|-/7-77-7-7-7-7-7\5-|-7-77-7-7-7-7-7\5-|-3-33-3-3-3-3-33-|-2-22-2-2/6-66-6-|
D|-/x-xx-x-x-x-x-x\x-|-x-xx-x-x-x-x-x\x-|-x-xx-x-x-x-x-xx-|-x-xx-x-x/x-xx-x-| x 2
A|-/5-55-5-5-5-5-5\3-|-5-55-5-5-5-5-5\3-|-1-11-1-1-1-1-11-|-0-00-0-0/4-44-4-|
D|-------------------|------------------|-----------------|-----------------|

Guitar 2
e|----|---------------------------|-5-------------|------0--------|
B|----|---------------------------|------6--------|---------6-(6)-|
G|----|-10-1010-10-10-10-10-10/14-|---7-----7-(7)-|-7-7-----------|
D|----|--x--x-x--x--x--x--x--x/-x-|---------------|---------------| x 2
A|----|--8--8-8--8--8--8--8--8/12-|---------------|---------------|
D|----|---------------------------|---------------|---------------|

Guitar 3
e|----|----|-----------------|-----------------|
B|----|----|-----------------|-----------------|
G|----|----|-----------------|-----------------|
D|----|----|-8-8-8-8-8-8-8-8-|-7-7-7-7-7-7-7-7-| x 2
A|----|----|-8-8-8-8-8-8-8-8-|-7-7-7-7-7-7-7-7-|
D|----|----|-8-8-8-8-8-8-8-8-|-7-7-7-7-7-7-7-7-|

Pre-Chorus

Guitar 1 & 2 (clean)
e|----|----|----|----|----|----|----|-----|
B|----|----|----|----|----|----|----|-----|
G|-3~-|-5~-|-7~-|-2~-|-3~-|-5~-|-7~-|-(7)-|
D|-3~-|-5~-|-7~-|-2~-|-3~-|-5~-|-7~-|-(7)-|
A|-1~-|-3~-|-5~-|-0~-|-1~-|-3~-|-5~-|-(5)-|
D|----|----|----|----|----|----|----|-----|

Guitar 3
e|----|----|----|----|----|----|----|-----|
B|----|----|----|----|----|----|----|-----|
G|-3~-|-5~-|-7~-|-2~-|-3~-|-5~-|----|-----|
D|-3~-|-5~-|-7~-|-2~-|-3~-|-5~-|-0~-|-(0)-|
A|-1~-|-3~-|-5~-|-0~-|-1~-|-3~-|-0~-|-(0)-|
D|----|----|----|----|----|----|-0~-|-(0)-|

Chorus Pt. 1

Guitar 1
e|------------------------------------|     |------------------|------------------|
B|------------------------------------|     |------------------|------------------|
G|-10-7-9-7-9-7-10-7-9-7-9-7-10-7-9-7-|     |------------------|------------------|
D|------------------------------------| x 2 |------------12----|------------------|
A|------------------------------------|     |----10--12-----12-|--(12)--12--10--7-|
D|------------------------------------|     |------------------|------------------|

Guitar 2 & 3
e|-------|--------|-------|-------------------|
B|-------|--------|-------|----palm muted-----|
G|-------|--------|-------|-------------------|
D|-0~-0~-|-10~-7~-|-8~-8~-|-55555555-77777777-|
A|-0~-0~-|-10~-7~-|-8~-8~-|-55555555-77777777-|
D|-0~-0~-|-10~-7~-|-8~-8~-|-55555555-77777777-|

Chorus Pt. 2

Guitar 1
e|------------------------------------|     |------------------|------------------|
B|------------------------------------|     |------------------|------------------|
G|-10-0-9-0-7-9-0-7-10-0-9-0-7-9-7-0--|     |------------------|------------------|
D|------------------------------------| x 2 |------------12----|------------------|
A|------------------------------------|     |----10--12-----12-|--(12)--12--10--7-|
D|------------------------------------|     |------------------|------------------|

Guitar 2
e|-------------------------------------------|     |---------------|----------------|
B|-------------------------------------------|     |---------------|----------------|
G|-14-0-12-0-10-12-0-10-14-0-12-0-10-12-10-0-|     |----7--9--10-9-|--(9)--10--9--5-|
D|-------------------------------------------| x 2 |---------------|----------------|
A|-------------------------------------------|     |---------------|----------------|
D|-------------------------------------------|     |---------------|----------------|

Guitar 3
e|-------|--------|-------|--------------------|
B|-------|--------|-------|----palm muted------|
G|-------|--------|-------|--------------------|
D|-0~-0~-|-10~-7~-|-8~-8~-|-55555555-777712\---|
A|-0~-0~-|-10~-7~-|-8~-8~-|-55555555-777712\---|
D|-0~-0~-|-10~-7~-|-8~-8~-|-55555555-777712\---|

(Repeat Verse)

(Repeat Pre-Chorus)

(Repeat Chorus Pt. 1 and Pt. 2)

Breakdown Pt. 1

Guitar 1 & 2
e|---------------|----------------|------------------|
B|---------------|----------------|------------------|
G|---------------|----------------|------------------|
D|-0-----0-----0-|-0-----0-----0--|-----0-----0------|
A|-0-----0-----0-|-0-----0-----0--|-----0-----0------|
D|-0-----0-----0-|-0-----00000000-|-0000000000000000-|
                          ***** *   **** ***** *****

Guitar 3
e|---------------|--------------------|---------------------|
B|---------------|--------------------|---------------------|
G|---7\5---910-7-|\5---910----7\5-----|-910-----7\5-----910-|
D|-0-x\x-0-x/x-x-|\x-0-x/x-0--x\x--0--|-x/x--0--x\x--0--x/x-|
A|-0-5\3-0-7/8-5-|\3-0-7/8-0--5\3--0--|-7/8--0--5\3--0--7/8-|
D|-0-----0-------|---0-----0-------0--|------0-------0------|

Breakdown Pt. 2

Guitar 1
e|----------------------------|---------------------------|--------------------------|
B|----------------------------|---------------------------|--------------------------|
G|-12p9------10p9~----12p10p9-|----9h10p9~--------12p10p9-|--------------------------|
D|-----10~--------------------|-10~-----------------------|-10\9~----9/12~----12\10~-|
A|----------------------------|---------------------------|--------------------------|
D|----------------------------|---------------------------|--------------------------|

Guitar 1 (cont.)
e|-----------------|
B|-----------------|
G|-----------------|
D|----10\9~----10~-|
A|-----------------|
D|-----------------|

Breakdown Pt. 3

Guitar 1 (Repeat Breakdown Pt. 2)

Guitar 2
e|-----------------------|-------------------------|-------------------------|------------------|
B|-----------------------|-------------------------|-------------------------|------------------|
G|---------9~------------|-------------------------|-------------------------|------------------|
D|-14~----10~-----141210-|---101210~--------141210-|-------------------------|------------------|
A|-----------------------|-12----------------------|-1210~----1014~-----1412~|-----1210~----12~-|
D|-----------------------|-------------------------|-------------------------|------------------|

Breakdown Pt. 4

Guitar 1
e|-------------------|-------------------|------------------|-------------------|
B|-------------------|-------------------|---8--------------|---8---------------|
G|-------------------|-------------------|----109-----------|----109------109---|
D|-79999-910-79-9999-|-79999-910-79-9999-|--------10~-------|--------10~--------| x 3
A|-------------------|-------------------|------------------|-------------------|
D|-------------------|-------------------|------------------|-------------------|

Guitar 2
e|----|-------|----|---------|
B|----|-------|----|---------|
G|----|-------|----|---------|
D|-7~-|-7~-5~-|-3~-|-5-------|
A|-7~-|-7~-5~-|-3~-|-5-(x16)-|
D|-7~-|-7~-5~-|-3~-|-5-------|

e|------------------|------------------|------------------|------------------|
B|------------------|------------------|------------------|------------------|
G|-57777-79-57-7777-|-57777-79-57-7777-|------------------|------------------|
D|------------------|------------------|------------------|------------------| x 2
A|------------------|------------------|-333-3-333-3-33---|-555-5-555-5-55---|
D|------------------|------------------|-333-3-333-3-33---|-555-5-555-5-55---|

Guitar 3
e|----|-------|----|---------|
B|----|-------|----|---------|
G|----|-------|----|---------|
D|-7~-|-7~-5~-|-3~-|-5-------|
A|-7~-|-7~-5~-|-3~-|-5-(x16)-|
D|-7~-|-7~-5~-|-3~-|-5-------|

e|------------------|------------------|------------------|------------------|
B|------------------|------------------|------------------|------------------|
G|------------------|------------------|------------------|------------------|
D|------------------|------------------|------------------|------------------| x 2
A|-777-7-777-7-77---|-777-7-777-7-77---|-333-3-333-3-33---|-555-5-555-5-55---|
D|-777-7-777-7-77---|-777-7-777-7-77---|-333-3-333-3-33---|-555-5-555-5-55---|

(Repeat Pre-Chorus)

(Repeat Chorus Pt. 1 and Pt. 2)

(Repeat Breakdown Pt. 1)
Tap to rate this tab
 
# A B C D E F G H I J K L M N O P Q R S T U V W X Y Z