Song name
# A B C D E F G H I J K L M N O P Q R S T U V W X Y Z

Alesana - The Thespian tab

Song:"The Thespian"
Artist: Alesana
Album: The Emptiness (Fearless Records. 2010)
Drop D

(Baby!) Why are you doing this to me? (Sweetheart) Are those your eyes...?
|---------------------------------------------------------------------------|
|---------------------------------------------------------------------------|
|-7-7--7--7--7--10--10-10--10--10/12-10----------------12--12-12--12-12/14--|
|-x-x--x--x--x--x---x--x---x---x//x------7-7--7--7--7--x---x--x---x--x-/x---|
|-5-5--5--5--5--8---8--8---8---8//8------7-7--7--7--7--10--10-10--10-10/12--|
|----------------------------------------7-7--7--7--7-----------------------|

(Angel) I see your smile everywhere (Darling, Stop!)
|--------------------------------------------------------------------------|
|--------------------------------------------------------------------------|
|---------------14--14-14--14-14/15---------------------17-17\15-15\14\12--|
|-8-8--8--8--8--x---x--x---x--x//x---10-10--10--10--10--x--x\\x--x\\x\\x---|
|-8-8--8--8--8--12--12-12--12-12/13--10-10--10--10--10--15-15\13-13\12\10--|
|-8-8--8--8--8-----------------------10-10--10--10--10---------------------|

Night falls....
|---------------------------|
|---------------------------|
|---------------------------|
|-0-----7-----8-----10------| x2
|-0-x16-7-x16-8-x16-10-x16--|
|-0-----7-----8-----10------|

Tell me I'm forgiven...
|----------------------------------------|
|----------------------------------------|
|------------12h14-12-10-9---12-10-------|
|-0-------0------------------------11-12-|
|-0-------0------------------------------|
|-0-------0------------------------------|

Tell me I'm forgiven...
|------------------------------------------------|
|------------------------------------------------|
|--------------12h14-12-10-9---12-10-------------|
|--0--------0------------------------11----12----|
|--0--------0------------------------------------|
|--0--------0------------------------------------|


I touch your lips...
|-----------------------------|
|-----------------------------|
|-----------------------------|
|-3------0------8------10-----|
|-3-x32--0-x32--8-x32--10-x32-|
|-3------0------8------10-----|

Night as dark as my thoughts...
|--------------------------------------------------|
|--------------------------------------------------|
|--------------------------------------------------|
|-0s--0s--0s--0s-0s--8-8-8-8--8--8--777-7-7--7--7--| x4
|-0s--0s--0s--0s-0s--8-8-8-8--8--8--777-7-7--7--7--|
|-0s--0s--0s--0s-0s--8-8-8-8--8--8--777-7-7--7--7--|

Tell me I'm forgiven...
|----------------------------------------|
|----------------------------------------|
|------------12h14-12-10-9---12-10-------|
|-0-------0------------------------11-12-|
|-0-------0------------------------------|
|-0-------0------------------------------|

Tell me I'm forgiven...
|------------------------------------------------|
|------------------------------------------------|
|--------------12h14-12-10-9---12-10-------------|
|--0--------0------------------------11----12----|
|--0--------0------------------------------------|
|--0--------0------------------------------------|

I touch your lips...
|-----------------------------|
|-----------------------------|
|-----------------------------|
|-3------0------8------10-----|
|-3-x32--0-x32--8-x32--10-x32-|
|-3------0------8------10-----|

[solo]
|------------------------------------------------------|
|------------------------------------------------------|
|-/17-15-13--12-12h14-12-10---/17-14-12-10-12-14-15-14-|
|------------------------------------------------------|
|------------------------------------------------------|
|------------------------------------------------------|

|----------------------------------------------------------|
|----------------------------------------------------------|
|-------10h12-10h12-15--15-15-16-13-11-13-10--/15-13-11-10-|
|-10h12----------------------------------------------------|
|----------------------------------------------------------|
|----------------------------------------------------------|

Look at you, you miserable fool...
|-------------------------------------------------------------------------|
|-------------------------------------------------------------------------|
|-------------------------------------------------------------------------|
|-x-x-x-0---0-0---0-0---0-0-0-0-0-0-0-0--0---0-0---0-0---0-0-0-0-0-0-0-0--|
|-x-x-x-0---0-0---0-0---0-0-0-0-0-0-0-0--0---0-0---0-0---0-0-0-0-0-0-0-0--|
|-x-x-x-0---0-0---0-0---0-0-0-0-0-0-0-0--0---0-0---0-0---0-0-0-0-0-0-0-0--|
                          . . . . . .                      . . . . . .

I've been expecting you for some time, sir...
|------------------------------------------------------|
|------------------------------------------------------|
|------------------------------------------------------|
|-0---0-0---0-0-0-0-0-0-0-0---0-0---0-0-0-0-0-0-0-0----|
|-0---0-0---0-0-0-0-0-0-0-0---0-0---0-0-0-0-0-0-0-0-x3-|
|-0---0-0---0-0-0-0-0-0-0-0---0-0---0-0-0-0-0-0-0-0----|
              . . . . . .             . . . . . .            

(There's noting left) tonight I raise my glass...
|------------------------------------------------|
|------------------------------------------------|
|------------------------------------------------|
|-0--0--0--0--8--8--8--8--5--5--5--5--7--7--7--7-|
|-0--0--0--0--8--8--8--8--5--5--5--5--7--7--7--7-|
|-0--0--0--0--8--8--8--8--5--5--5--5--7--7--7--7-|
Tap to rate this tab
 
# A B C D E F G H I J K L M N O P Q R S T U V W X Y Z