Song name
# A B C D E F G H I J K L M N O P Q R S T U V W X Y Z

Alesana - Last Three Letters tab

Tabbed by:Mandiel / This Song Is So Cool!!!!Play This Song At Duo.Belive me!

Intro/Verse (x2)
E|-----8-----8-----8-----8-------------------8----|
B|-6-8---6-8---6-8---6-8---6-5-6-6-5-6-8-5-6---5-6|
G|5-5-5-5-5-5-5-5-5-5-5-5-5-5-5-5-5-5-5-5-5-5-5-5-|
D|------------------------------------------------|
A|------------------------------------------------|
D|------------------------------------------------|

Verse#2 (x2)
E|----------------------------------------------------------------------------------|
B|-5-6--6--6-6-5--5--5-5-6--6--6-8---6---5--5-6--6--6-6-5--5--5--5--5---6--7--6--5--|
G|----------------------------------------------------------------------------------|
D|----------------------------------------------------------------------------------|
A|----------------------------------------------------------------------------------|
D|----------------------------------------------------------------------------------|

Chorus (x2)
E|-10-8-------12-12h13-12-10--10----10-8--12-10----------10-8--13-12---------|
B|-----10-8-10--------------13-------------------10h11-11------------11p10-1-|
G|---------------------------------------------------------------------------|
D|-------------------------------x2------------------------------------------|
A|---------------------------------------------------------------------------|
D|---------------------------------------------------------------------------|

Its Me Again.../To Be Concerned...   Was This All I Lie... Why????!!!!!!
E|-1-1-1-1-1-1-1-1-0-0-0-0-5-5-3-3-----1-------0----------1x4-0x4----0-|
B|1-1-1-1-1-1-1-1-1-1-1-1-5-5-5-5----------------------3----------3x4--|
G|---------------------------------------------------------------------|
D|----------------------------------x2---------------------------------|
A|---------------------------------------------------------------------|
D|---------------------------------------------------------------------|

Repeat The Chorus

Make It Stop..., (x2)
E|------------------------------------------------------------------------|
B|--5-8--6-5-8-6-5h6-5-8-6-5-8--6-5-8-6-5-8-6-5-8-6-5h6-5-8--6-5-8-6-5-6-5|
G|-5------5---------5-----5------5-----5-----5---------5------5-----------|
D|------------------------------------------------------------------------|
A|------------------------------------------------------------------------|
D|------------------------------------------------------------------------|

If My Words Even Reach you.../I Assume You Don't Care
E|---------------3-6----------------------3-6----------3-6-----|
B|------------3-6---3-6-5--------------3-6---3-6-5--3-6---6-5--|
G|-------------------------------------------------------------|
D|-------------------------------------------------------------|
A|-------------------------------------------------------------|
Tap to rate this tab
 
# A B C D E F G H I J K L M N O P Q R S T U V W X Y Z