Song name
# A B C D E F G H I J K L M N O P Q R S T U V W X Y Z

Alesana - The Murderer tab

Not original work - updates at bottom

--- Rhytm ---


0:01 - 0:19

1:-------------------------------------|\   X2
2:-------------------------------------| \
3:-------------------------------------|  \  Find the right strumming... Let ring the last (0~)
4:-------------------------------------|  /                                                (0~)
5:-0-0-0-0-0-0-0---12\--0-0-0-0-0-0-0~~| /
6:-0-0-0-0-0-0-0---12\--0-0-0-0-0-0-0~~|/
PM . . . . . . .        . . . . . . .

0:23 - 0:29

1:---------|\   X2
2:---------| \
3:---------|  \ I think he say '' Patiently for this '' in same time.
4:-5-10-5-7|  / String keyboard are in D.
5:---------| /
6:---------|/

0:30 - 0:34

1:-------------------------------------------------------------|\
2:-------------------------------------------------------------| \
3:-------------------------------------------------------------|  \ Two guitar play the last four
4:-----------------------------------------------------5-10-5-7|  / note in harmony...
5:-------------------------------------------------------------| /
6:-0-0-0-0-0--0-0-0-0-0--0-0-0-0-0-0-0-0-0--0-0-0-0-0----------|/
PM . . . . .  . . . . .  . . . . . . . . .  . . . . .

0:35 - 0:39

1:-----------------------------------------------------|\
2:-----------------------------------------------------| \
3:-----------------------------------------------------|  \There can be a few too much zero or some
4:------------------------------------------8--7--5--7-|  / missing, hard to hear...
5:------------------------------------------8--7--5--7-| /
6:-0-0-0-0-0--0-0-0-0-0--0-0-0-0-0-0-0-0-0--8--7--5--7-|/
PM . . . . .  . . . . .  . . . . . . . . .

0:40 - 1:02

1:----------------------------------------------------|\   X4
2:----------------------------------------------------| \
3:----------------------------------------------------|  \ Take a rest after 2 times, then do it
4:------------------------------------------8--7--5--7|  / again 2 more times.
5:-0-0-0-0-0---000--0-0-0-0---0-0-0-0-0--0--8--7--5--7| /  (For a total of 4...).
6:-0-0-0-0-0---000--0-0-0-0---0-0-0-0-0--0--8--7--5--7|/
PM . . . . .   ...  . . . .   . . . . .  .

1:03 - 1:12

1:----------------------------------------------------|\   
2:----------------------------------------------------| \
3:----------------------------------------------------|  \ Take a rest between each notes.
4:-8--8--10-----7--7--8-----8--8--10-----7--7--12-----|  /
5:-8--8--10-----7--7--8-----8--8--10-----7--7--12-----| /
6:-8--8--10-----7--7--8-----8--8--10-----7--7--12-----|/

1:13 - 1:31

1:---------------------------------------------------------------------------------------------|\X2
2:---------------------------------------------------------------------------------------------| \
3:---------------------------------------------------------------------------------------------|  \
4:-7-7-7-7-7--7-7-7-X 8--5-5-5-5-5--5-5-5-X-5--7-7-7-7-7--7-7-7-8--8-8-8-12-X-10--X-X-X-X-X-X-X|  /
5:-7-7-7-7-7--7-7-7-X-8--5-5-5-5-5--5-5-5-X-5--7-7-7-7-7--7-7-7-8--8-8-8-12 X-10--X-X-X-X-X-X-X| /
6:-7-7-7-7-7--7-7-7-X-8--5-5-5-5-5--5-5-5-X-5--7-7-7-7-7--7-7-7-8--8-8-8-12-X-10--X-X-X-X-X-X-X|/

------> There can be a few notes missings, find the right strumming...

1:32 - 1:36

1:--------------|\
2:--------------| \
3:--------------|  \ Follow the beat w/ bassdrum hit...
4:-0-0-------0-0|  /
5:-0-0-------0-0| /
6:-0-0-------0-0|/

1:37 - 1:56

1:--------------------------------------------------------------------------------|\   X2
2:--------------------------------------------------------------------------------| \
3:--------------------------------------------------------------------------------|  \ Nothing
4:-0--0--0-----------0----0--0--0-----------10--10-10-10-10-10-10-7--7-7-7-7-7-7--|  /special about
5:-0--0--0--0-0-0-0--0----0--0--0--0-0-0-0--10--10-10-10-10-10-10-7--7-7-7-7-7-7--| /  this riff...
6:-0--0--0--0-0-0-0--0----0--0--0--0-0-0-0--10--10-10-10-10-10-10-7--7-7-7-7-7-7--|/
PM          . . . .                . . . .

1:57 - 2:05

1:----------------------------------------------------|\   
2:----------------------------------------------------| \
3:----------------------------------------------------|  \ Take a rest between each notes.
4:-8--8--10-----7--7--8-----8--8--10-----7--7--12-----|  /
5:-8--8--10-----7--7--8-----8--8--10-----7--7--12-----| /
6:-8--8--10-----7--7--8-----8--8--10-----7--7--12-----|/

2:06 - 2:25

1:---------------------------------------------------------------------------------------------|\X2
2:---------------------------------------------------------------------------------------------| \
3:---------------------------------------------------------------------------------------------|  \
4:-7-7-7-7-7--7-7-7-X 8--5-5-5-5-5--5-5-5-X-5--7-7-7-7-7--7-7-7-8--8-8-8-12-X-10--X-X-X-X-X-X-X|  /
5:-7-7-7-7-7--7-7-7-X-8--5-5-5-5-5--5-5-5-X-5--7-7-7-7-7--7-7-7-8--8-8-8-12 X-10--X-X-X-X-X-X-X| /
6:-7-7-7-7-7--7-7-7-X-8--5-5-5-5-5--5-5-5-X-5--7-7-7-7-7--7-7-7-8--8-8-8-12-X-10--X-X-X-X-X-X-X|/

------> There can be a few notes missings, find the right strumming...

2:26 - 2:30

1:------------|\
2:------------| \
3:------------|  \ Short riff
4:0-0-----0-0~|  / Let ring last note
5:0-0-----0-0~| /
6:0-0-----0-0~|/
PM. .     . .


--- Lead ---


0:01 - 0:19

1:------------------------|\   X2
2:------------------------| \
3:7-------12--14-------6--|  \ Just find the strumming it's easy but long to write...
4:X-------X---X--------X--|  /
5:5-------10--12-------4--| /
6:------------------------|/

0:40 - 1:02

1:------------------------------------------------------------|\   X2
2:------------------------------------------------------------| \
3:------------------------------------------------------------|  \ Something like that... 
4:0-5-8-5-7-0-7-0-7-0-7-0-10-0-7-0-5-8-5-7-0-7-0-7--8--7--5--7|   \
5:--------------------------------------------------8--7--5--7|    \
6:--------------------------------------------------8--7--5--7|     \
                                                                     \
                                                                     /
1:----------------|                                                 /
2:----------------|                                                /
3:----------------|                                               /
4:0-7-10-7-0-5-7-0|                                              / Play the whole arrow 2 times...
5:----------------|                                             /
6:----------------|                                            /

1:33 - 1:37

1:-1---1/6-5--1---1/6-5--|\
2:-----------------------| \  
3:-----------------------|  \ After the rhytm...
4:-----------------------|  /
5:-----------------------| /
6:-----------------------|/

1:41 - 1:56

1:--------------------------------------------------|\    X2
2:--------------------------------------------------| \
3:-----------------------9--9--9/10\9-7--7-7-7-7/14~|  \  Hard to hear... It should be something
4:-7-10-8~-7-8-7~--------X--X--X-X--X-X--X-X-X-X-X--|  /  like this...
5:-----------------------7--7--7/8-\7-5--5-5-5-5/12~| /
6:--------------------------------------------------|/

All of the above is from the tab by MangeuDePoutine@hotmail.com So he gets all the 
credit for this now below is the solo and what i did to finish his tab

1:---------|
2:---------|
3:---------|
4:--7-5----| at about the middle the lead sweeps up i dont know that but..
5:-----8-7-|
6:---------|

1:--------------------------------------------------------------------|
2:------15-17----17h18p17---------------------------------------------|
3:-14-17-----17\---------17-19-----17---------------------------------|
4:----------------------------19-17--19-17----------------------------|
5:----------------------------------------20-20-19-19-17-17-15-15-17~-|
6:--------------------------------------------------------------------|
PM                                        ........................

I dont think the 0's here are right but they'll work

1:-------------------------------------------------------------|
2:-10-0-10-0-11-0-11-0-13-0-13-0-11-0-11-0-13-0-13-0-15-0-15-0-|
3:-------------------------------------------------------------|
4:-------------------------------------------------------------|
5:-------------------------------------------------------------|
6:-------------------------------------------------------------|
PM ...........................................................

This part is played really fast, so take it slow at first

1:------------------------------------------|
2:-18-15-17-13-15-11-13-10-11-8-10-6-8-5-6*-|
3:------------------------------------------|
4:------------------------------------------|
5:------------------------------------------|
6:------------------------------------------|

1:---------|
2:---------|
3:---------|
4:-7-5-7-0-| x2?
5:---------|
6:---------|

So thats what I added rate plz!

\  = Slide down...
~  = Let ring...
X  = Dead/Mute notes...
Tap to rate this tab
# A B C D E F G H I J K L M N O P Q R S T U V W X Y Z