Alesana - The Artist tab

Song:The Artist
Band:Alesana
Album:The Emptiness
This is played in drop d : D A D G B E
This is my second tab.
This is only guitar 1(Lead Guitar)

Intro x2

E-------------------------------------------------------------------|
B-------------------------------------------------------------------|
G------------------------5h7p5--------------------------------------|
D-------7-5-----7h8p7---------8-5-7-----7-5-----7h8p7---5-7-8-7-5---|
A-----------------------------------------------------8-----------8-|
D---0-0--0--0-0------0-0------------0-0--0--0-0---------------------|
    . .  .  . .      . .            . .  .  . .


Verse 1

E------------------------------------|
B------------------------------------|
G-----------------------5h7p5--------|
D-------7-5~~~~~7h8p7--------8-5-7---|  x3
A------------------------------------|
D---0-0--0---------------------------|
    . .  .


E------------------------------------|
B------------------------------------|
G---777-777-777-777------------------|
D------------------------------------|
A------------------------------------|
D------------------------------------|

E------------------------------------|
B------------------------------------|
G-----------------------5h7p5--------|
D-------7-5~~~~~7h8p7--------8-5-7---|  x3
A------------------------------------|
D---0-0--0---------------------------|
    . .  .

E------------------------------------|
B------------------------------------|
G---777-777-777-777-766-666-666-666--|
D------------------------------------|
A------------------------------------|
D------------------------------------|

After Piano part

E------------------------------------|
B------------------------------------|
G------------------------------------|
D----7p6-7p6-7p6-7p6-7p6-------------|
A------------------------------------|
D---0---0---0---0---0----------------|
    .   .   .   .   .

After a clean part

Pre-Chorus

E------------------------------------|
B------------------------------------|
G------------------------------------|
D----7p6-7p6-7p6-7p6-7p6-------------|
A------------------------------------|
D---0---0---0---0---0----------------|
    .   .   .   .   .

E------------------------------------|
B------------------------------------|
G------7-7-7---7-7-7---6-6-6---6-6-6-|
D------x-x-x---x-x-x---x-x-x---x-x-x-|
A------5-5-5---5-5-5---4-4-4---4-4-4-|
D---0-0-----0-0-----0-0-----0-0------|
    . .     . .     . .     . .

E----------------------------------------------------------------------|
B----------------------------------------------------------------------|
G------7777-9999-10101010-12121212-10101010-12121212-14141414-17171717-|
D------xxxx-xxxx-x-x-x-x--x-x-x-x--x-x-x-x--x-x-x-x--x-x-x-x--x-x-x-x--|
A------5555-7777-8-8-8-8--10101010-8-8-8-8--10101010-12121212-15151515-|
D---0-0----------------------------------------------------------------|
    . .

E----------------------------------------|
B----------------------------------------|
G------7-7-7---7-7-7---6-6-6---10-10-9-9-|
D------x-x-x---x-x-x---x-x-x---x--x--x-x-|
A------5-5-5---5-5-5---4-4-4---8--8--7-7-|
D---0-0-----0-0-----0-0-----0-0----------|
    . .     . .     . .     . .

E-------------------------------------------------------------------|
B-------------------------------------------------------------------|
G---7777-9999-10101010-12121212-10101010-12121212-14141414-17171717-|
D---xxxx-xxxx-x-x-x-x--x-x-x-x--x-x-x-x--x-x-x-x--x-x-x-x--x-x-x-x--|
A---5555-7777-8-8-8-8--10101010-8-8-8-8--10101010-12121212-15151515-|
D-------------------------------------------------------------------|


Chorus x2

E--------------------------------------|
B---6-6-6-66~--------------------------|
G------------7-77-9~10~9~10~9~10-9-5-7-|
D--------------------------------------|
A--------------------------------------|
D--------------------------------------|

E--------------------------------------|
B-----------------10--8--11------------|
G-----10--9--7-------------------------|
D---0-----------0----------------------|
A---0---0---0---0---0---0--------------|
D---0---0---0---0---0---0--------------|
        .   .       .   .

Bridge to verse 2

E------------------|
B------------------|
G------------------|
D----7p6-7p6-------|
A------------------|
D---0---0----------|
    .   .

verse 2

E----------------------------------|
B----------------------------------|
G---7-----6-----4------------------|
D---7-x16-6-x16-4-x16--------------|
A---5-----4-----2------------------|
D----------------------------------|

Repeat Pre-Chorus

Repeat Chorus

Verse 3

E--------------------------------------|
B--------------------------------------|
G--------------------------------------|
D---8~~~8-10~~~10-12~~~12-10~~~10-8~~~-| x2
A---8~~~8-10~~~10-12~~~12-10~~~10-8~~~-|
D---8~~~8-10~~~10-12~~~12-10~~~10-8~~~-|
   When played the second time dont play the first or last two chords.

E---0-1-3-0-----------------------0-1-3-0------------------|
B-----------2-3-2-1-0---0-1-0---0---------2-3-2-1-0---0-1~-|
G---------------------2-------2---------------------2------|
D----------------------------------------------------------| x4
A----------------------------------------------------------|
D----------------------------------------------------------|

   This comes in right after the second time that^ is played.
E---------------------------------|
B---------------------------------|
G---7777-9999-10101010-12121212---|
D---xxxx-xxxx-x-x-x-x--x-x-x-x----| x4
A---5555-7777-8-8-8-8--10101010---|
D---------------------------------|

Repeat Chorus

And that is the song,if you have any corrections feel free to make them or if you have 
to add feel free to do that too.
COMMENT/RATE PLEASE!

h=hammeron
p=pulloff
~=let ring
.=palm mute
Tap to rate this tab
 
# A B C D E F G H I J K L M N O P Q R S T U V W X Y Z