Alesana - Seduction tab

This song may be a bit rough but you can get the main tune of it off of this tab.

The song is in Drop D tune.

D----------------------------------------------------------------------|
A----------------------------------------------------------------------|
D----10-10--------------------------------------------8--------10------|
G--10------9/10--10---10--7-10-------6---6--------------7--------9-----|
B--------------8----10--------10-------5---8-6-5----6-----6--8-----8---|
e----------------------------------------------------------------------|

D----------------------------|
A----------------------------|
D----------------------------|
G-------------------------5--|       :Then Reapeat:
B--10/11\10---8-6-5---6-5----|
e----------------------------|
Tap to rate this tab
 
# A B C D E F G H I J K L M N O P Q R S T U V W X Y Z