Song name
# A B C D E F G H I J K L M N O P Q R S T U V W X Y Z

Alesana - All Night Dance Parties In The Underground Palace tab

hey people this is my first tab so if it sucks im srry=/... but i think it sounds right. 
learn it, rate it nd comment nd dont forget to tell me if there is anything wrong in 
is in Drop D.^__^......yup :]

      INTRO
e|----------------------12------9-10-----|
B|-10------10------7-10----7-10----------|
G|----9-7-----9-7------------------------|
D|---------------------------------------| (4x)
A|---------------------------------------|
D|---------------------------------------|

      VERSE
e|----------------------12~--9-10~-------|        \
B|-----10~---------7-10------------------|        \
G|-7-9-----9-7~--------------------------|        \
D|---------------------------------------|        \
A|---------------------------------------|        \
D|---------------------------------------|        \
                                                  \  (2x)
e|------------------------------------------|     \
B|-----10~----------------------------------|     \
G|-7-9-----9-7~-----------------------------|     \
D|------------------8888888-----------------|     \
A|------------------8888888-----------------|     \
D|------------------8888888-----------------|     \
                                                  \
      PRE-CHORUS
e|--------------------------------------------------------------------------|
B|------------------------------------------------------------------7-------|
G|--------------------------------------------------------------------7-4---|
D|-----999999999\-----444444444/-----5555555555\-----44444444/----8~--------|
A|-----999999999\-----444444444/-----5555555555\-----44444444/----8~--------|
D|-----999999999\-----444444444/-----5555555555\-----44444444/----8~--------|
PM     .........      .........      ..........      .........


      Chorus
e|-------------------------------------------------------------------|
B|-------------------------------------------------------------------|
G|-------------------------------------------------------------------|
D|-5555555/----7777777/----9999999/----4444444-----------------------|
A|-5555555/----7777777/----9999999/----4444444-----------------------|
D|-5555555/----7777777/----9999999/----4444444-----------------------|

e|-------------------------------------------------------------------|
B|-------------------------------------------------------------------|
G|-------------------------------------------------------------------|
D|-5555555/----7777777/----44444444444444----------------------------|
A|-5555555/----7777777/----44444444444444----------------------------|
D|-5555555/----7777777/----44444444444444----------------------------|


e|-------------------------------------------------------------------|
B|-------------------------------------------------------------------|
G|-------------------------------------------------------------------|
D|-5555555/----7777777/----4444444/----9999999/----7-----------------|
A|-5555555/----7777777/----4444444/----9999999/----7-----------------|
D|-5555555/----7777777/----4444444/----9999999/----7-----------------|

e|-------------------------------------------------------------------|
B|-------------------------------------------------------------------|
G|-------------------------------------------------------------------|
D|-5555555/----7777777/----4444444444~-------------------------------|
A|-5555555/----7777777/----4444444444~-------------------------------|
D|-5555555/----7777777/----4444444444~-------------------------------|


        Repeat the Verse, Pre-Chorus, and Chorus

      BRIDGE
e|--------------------------------------------------------------------|
B|--------------------------------------------------------------------|
G|--------------------------------------------------------------------|
D|-9999999/----4444444/----5555555/----4444444/----88888--------------|
A|-9999999/----4444444/----5555555/----4444444/----88888--------------|
D|-9999999/----4444444/----5555555/----4444444/----88888--------------|


e|------------------------------------------------------------------------|
B|------------------------------------------------------------------------|
G|------------------------------------------------------------------------|
D|-9999999/----4444444/---5555555/----4444444/--8~---7-4-8888---7-4-------|
A|-9999999/----4444444/---5555555/----4444444/--8~-7-----8888-7-----7-----|
D|-9999999/----4444444/---5555555/----4444444/--8~-------8888-------------|


      Chorus
e|-------------------------------------------------------------------|
B|-------------------------------------------------------------------|
G|-------------------------------------------------------------------|
D|-5555555/----7777777/----9999999/----4444444-----------------------|
A|-5555555/----7777777/----9999999/----4444444-----------------------|
D|-5555555/----7777777/----9999999/----4444444-----------------------|

e|-------------------------------------------------------------------|
B|-------------------------------------------------------------------|
G|-------------------------------------------------------------------|
D|-5555555/----7777777/----44444444444444----------------------------|
A|-5555555/----7777777/----44444444444444----------------------------|
D|-5555555/----7777777/----44444444444444----------------------------|

e|-------------------------------------------------------------------|
B|-------------------------------------------------------------------|
G|-------------------------------------------------------------------|
D|-5555555/----7777777/----4444444/----9999999/----7-----------------|
A|-5555555/----7777777/----4444444/----9999999/----7-----------------|
D|-5555555/----7777777/----4444444/----9999999/----7-----------------|

e|-------------------------------------------------------------------|
B|-------------------------------------------------------------------|
G|-------------------------------------------------------------------|
D|-5555555/----7777777/----4444444444~-------------------------------|
A|-5555555/----7777777/----4444444444~-------------------------------|
D|-5555555/----7777777/----4444444444~-------------------------------|


Well thatz it!   enjoy!
nd if you wanna see how it goes here is a link to my video^__^ the only difference about 
video is that in the pre-chorus i didnt play the last three notes because at that time 
didnt know them but know i do...yup :]
http://www.youtube.com/watch?v=kf9jWAAMN6E
Tap to rate this tab
 
# A B C D E F G H I J K L M N O P Q R S T U V W X Y Z