Song name
# A B C D E F G H I J K L M N O P Q R S T U V W X Y Z

Alesana - A Lunatics Lament tab

	Well here what i found by ear.
OK THIS IS PRETTY MUCH IT UMMM YEAH ITS IN DROP D
ALESANA
A LUNATICS LAMENT

X?= NOT SURE HOW MANY STRUMS SO TRY TO FIGURE IT OUT

E|-0-------5-----------------------|
B|-6-x?----6-x?--------------------|
G|-7-------7-----------------------|
D|---------------------------------| Repeat for intro
A|---------------------------------|
D|---------------------------------|

If .......See.......

VERSE ALL
E|---------------------------|
B|---------------------------|
G|---------------------------|
D|-7----8----10----12--------|REPEAT
A|-7-x6-8x?--10x?--12x?------|
D|-7----8----10----12--------|

( THESE R THE CORRECTS CHORDS JUST  FIGURE OUT THE RYTHYM TO IT)


CHORUS 

E|--------------------------|
B|--------------------------|
G|-7------------------------|
D|-7X?-5---7---8---10-------|
A|-5---5X?-7X?-8X?-10X?-----|
D|-----5---7---8---10-------|

( THESE R THE CORRECTS CHORDS JUST  FIGURE OUT THE RYTHYM TO IT)


ARE YOU SATISFIED................
E|--------------------------------|
B|--------------------------------|
G|-7\2----------------------------|
D|-7\2----------------------------|
A|-5\0----------------------------|
D|--------------------------------|


VERSE BEGGING STARTS AGAIN AND CHORUS AGAIN TO SAME THING.

SOLO:


E|------------10-----------------|
B|--------------8-10-8-----------|
G|-7-9-10-12-----------7/9/7-----|
D|-------------------------------|
A|-------------------------------|
D|-------------------------------|

E|------------10-----------------|
B|--------------8-10-8-----------|
G|-7-9-10-7-----------7/9/7------|
D|-------------------------------|
A|-------------------------------|
D|-------------------------------|

REPEAT VARIOUS OF TIMES.

E|-0-------5-----------------------|
B|-6-x?----6-x?--------------------|
G|-7-------7-----------------------|
D|---------------------------------| 
A|---------------------------------|
D|---------------------------------|




CHORUS AGAIN..

ENDING SOLO PART THING LMAO.

E|--------------------------------------|
B|--------------------------------------|
G|-7-10-9-7-X?-7-10-9-10-9-10-7---------|
D|--------------------------------------|
A|--------------------------------------|
D|--------------------------------------|


Tap to rate this tab
# A B C D E F G H I J K L M N O P Q R S T U V W X Y Z