Song name
# A B C D E F G H I J K L M N O P Q R S T U V W X Y Z

Alesana - Annabel tab

artist: alesana
album: the emptiness
song: annabel

tuning: standard
key: C
legend: 
         . - palm mute
         ~ - sustain
        ~~ - longer sustain
         h - hammer-on
         x - dead note
         t - tap
         v - vibrato
       / \ - slide
        // - slide from nowhere

 ----------------
|     verse      |
 ----------------

guitar 1:

e|---------------------------------------------------------------------------|
B|---------------------------------------------------------------------------|
G|---------------------------------------------------------------------------| (2x)
D|--33333333--55555555--77777777--7777777-7-55--3333333--5555555--222222222~-|
A|--33333333--55555555--77777777--7777777-7-55--3333333--5555555--222222222~-|
E|--11111111--33333333--55555555--5555555-5-33--1111111--3333333--000000000~-|

guitar 2:

e|------------------------              -------------|
B|--8---------------------              -------------|
G|------------------------ (3x then...) -------------| (2x)
D|----7-10-7-10-10h12-9~--              --10v~--9v~--|
A|------------------------              -------------|
E|------------------------              -------------|

guitar 3:

e|------------------------------------------------------------------------|
B|------1---------3---------5---------5~-------1---------3--------0-------|
G|----2---2-----4---4-----5---5-----5--------2---2-----4---4----0---0-----|2x
D|--3---------5---------7---------7--------3---------5--------2-------2~--|
A|------------------------------------------------------------------------|
E|------------------------------------------------------------------------|

 ---------------
|   prechorus   |
 ---------------

guitar 1:

e|----------------------------------------------------------------|
B|----------------------------------------------------------------|
G|----------------------------------------------------------------|
D|--77-77-7777--33-3/5-5555--77-77-7777--33-3/5-5555--2222222222--|
A|--77-77-7777--33-3/5-5555--77-77-7777--33-3/5-5555--2222222222--|
E|--55-55-5555--11-1/3-3333--55-55-5555--11-1/3-3333--0000000000--|

guitar 2:

e|--------------------              ---------------|
B|--------------------              ---------------|
G|--77-77-77-77-55-4-- (3x then...) ---------------|
D|--xx-xx-xx-xx-xx-x--              --22222222222--|
A|--55-55-55-55-33-2--              --22222222222--|
E|--------------------              --00000000000--|

 ------------
|   chorus   |
 ------------

guitar 1:

e|-----------------------------------------------------|
B|-----------------------------------------------------|
G|--------------5555555555-----------------------------| (2x)
D|--7777777777--5555555555--33333333-3-7--55555555555--|
A|--7777777777--3333333333--33333333-3-7--55555555555--|
E|--5555555555--------------11111111-1-5--33333333333--|

guitar 2:

e|-----------------------------|
B|-----------------------------|
G|--9\7-7--9\7-7--12--11-9--7--|
D|--x-x-x--x-x-x--x---x--x--x--| (4x)
A|--7\5-5--7\5-5--10--9--7--5--|
E|-----------------------------|

 -----------------
|   post chorus   |
 -----------------

guitar 1:

e|---------------------------------------|
B|---------------------------------------|
G|-----------5~-4~------------5555-4444--|
D|--7-77-77--5~-4~---7-77-77--5555-4444--|
A|--7-77-77--3~-2~---7-77-77--3333-2222--|
E|--5-55-55----------5-55-55-------------|

guitar 2:

e|-----------------------------------------|
B|-----------------------------------------|
G|-14--9-11-14--9-11--14--9-11---17~--16~--|
D|-x---x-x--x---x-x---x---x-x----x----x----| (2x)
A|-12--7-9--12--7-9---12--7-9----15~--14~--|
E|-----------------------------------------|



repeat verse
repeat prechorus
repeat chorus
repeat post chorus

 ------------
|   bridge   |
 ------------

guitar 3:

e|---------------------------------|
B|--------10-----------------------|
G|--9~~------9~---7-9---7-9--------| (4x)
D|--------------------7-----5-7----|
A|---------------------------------|
E|---------------------------------|

guitar 2:

e|--------------------------------------|
B|--------------------------------------|
G|--------------------------------------|
D|--7/9~--7h9~--9h10-7~-7-7h9-5~--------| (4x)
A|-------------------------------5-7-3--|
E|--------------------------------------|

*this part is so hard for two guitars... so i do it this way

e|----------------------------------------------------|
B|--------------------10------------------------------|
G|----------9~-----------9~---------------------------|
D|------7/9-------7/9-------9h10-7~-7-7h9-5~----------|
A|--------------------------------------------5h7-3~--|
E|--(5)-------(5)-------------------------------------|


 -----------------
|   bridge pt 2   |
 -----------------

guitar 1:

e|-----------------------------------------------------------|
B|-----------------------------------------------------------|
G|-----------------------------------------------------------|
D|--7-777-777-777-777-777-777--3-333-333-333--5-555-555-555--| (4x)
A|--7-777-777-777-777-777-777--3-333-333-333--5-555-555-555--|
E|--5-555-555-555-555-555-555--1-111-111-111--3-333-333-333--|


guitar 2:

e|--------------
B|--------------
G|-------------- (comes in second time in guitar 1's prog)
D|--//7v~~------
A|--------------
E|--------------

------------------------------------------------------------------|
------------------------------------------------------------------|
------------------------------------------------------------------| (2x)
---7--7-5-7---7-5-7--7-5-10-9-7-5--3--3-2-3--3-2-5--5-3-10-9-7-5--|
------------------------------------------------------------------|
------------------------------------------------------------------|

guitar 3:

------------------------------------------------------------------|
-----------------------5-3----------------------------5-3---------|
--5--5-4-5--5-4-5--5-4-----5-4-----------------5--5-4-----5-4-----| (1x)
---------------------------------7--7-5-7--7-5--------------------|
------------------------------------------------------------------|
------------------------------------------------------------------|



 -----------------
|   bridge pt 3   |
 -----------------


guitar 1:

e|---------------------------------------------------|
B|---------------------------------------------------|
G|---------------------------------------------------|
D|--777-777777-777-777777---333-333333---555-555555--| (2x)
A|--777-777777-777-777777---333-333333---555-555555--|
E|--555-555555-555-555555---111-111111---333-333333--|
        ......     ......       ......       ......


guitar 2:

e|-----------------------------------------------------------|
B|--t17--8-10-12--------t18--8h10h12------t15--8h10h12-------|
G|-----------------(8x)--------------(4x)--------------(4x)--|
D|-----------------------------------------------------------| (2x)
A|-----------------------------------------------------------|
E|-----------------------------------------------------------|


 -----------------
|   bridge pt 4   |
 -----------------

guitar 2:

e|-------------------------------|
B|-------------------------------|
G|-------------------------------|
D|-------------------------5-7---| (4x) ***palm mute on the 3rd and 4th time
A|--7-5-7-8-10-8-7-8-7-5-7-------|
E|-------------------------------|

guitar 1:


e|----------------------------------------------|
B|----------------------------------------------|
G|----------------------------------------------|
D|--777777777777777777---333333333---555555555--| (4x) *** clinch on 3rd and 4th time
A|--777777777777777777---333333333---555555555--|
E|--555555555555555555---111111111---333333333--|

 -----------------
|   bridge pt 5   |
 -----------------


guitar 1:


e|-----------------------|
B|-----------------------|
G|-----------------------| (2x)
D|--7-77-7~--3-35-5~-----|
A|--7-77-7~--3-35-5~-----|
E|--5-55-5~--1-13-3~-----|


guitar 2:


e|------------------------------------------------------------------|
B|------------------------------------------------------------------|
G|---------------------------------------------------------5~~------| (2x)
D|---7--7-5-7---7-7--5-7-9-10-9-7---3--3-2-3--3-3----3-2-3----------|
A|------------------------------------------------------------------|
E|------------------------------------------------------------------|


 -----------
|   $%&*!   |
 -----------

guitar 1:

e|------------------------------------------------|
B|------------------------------------------------|
G|------------------------------------------------|
D|--77777777--55555555--10101010101010--33333333--| (2x)
A|--77777777--55555555--10101010101010--33333333--|
E|--55555555--33333333--8-8-8-8-8-8-8---11111111--|

guitar 2:

e|--8~----------------------------------------------------------------|
B|----10-----8--------------------------------------------------------|
G|-------9~----10-9-----9-7-------------------------------------------|
D|------------------10------10-9-----------7--------------------------| [2x]
A|-------------------------------(2x)---8~---7~--10-8-7-----8-7-------|
E|------------------------------------------------------10------10-8--|


repeat prechorus
repeat chorus
repeat $%&*!

 -----------
|   outro   |
 -----------


e|------------------------------------------------|
B|------------------------------------------------|
G|------------------------------------------------|
D|--77--------55--------1010------------33--------|
A|--77--------55--------1010------------33--------|
E|--55--------33--------8-8-------------11--------|

guitar 2:

e|--55------------------88------------------------|
B|------------88------------------------66--------|
G|------------------------------------------------|
D|------------------------------------------------|
A|------------------------------------------------|
E|------------------------------------------------|


last chord:

E|-------|
B|-------|
G|-------|
D|--7~~--|
A|--7~~--|
E|--5~~--|

____________________________________________________________________________
song structure

verse (how does the dagger feel when...)
prechorus (hoow could i be so blind...)
chorus (imagine where you'd be now...)
postchorus ( just say to me that this time as the last time...)
verse (years spent watching in silence...)
prechorus
chorus
postchorus
bridgept1 (ohh, is it my fault...)
bridgept2
bridgept3 (die!just die!...)
bridgept4 (you are scum! you are filth!...)
bridgept5 (i don't think they dig graves...)
$%&*! (i handed you a knife and my heart oh...)
prechorus
chorus
$%&*!
outro (i handed you...*all*)
____________________________________________________________________________
this is annabel tab..uhmm please comment/rate if you have the time... this
is my remastered version :) haha i took a lot for me to do this...this maybe
not 100% correct but i can assure you that this is accurate :) thanks guys
____________________________________________________________________________
our scours remind us that the past is real :)
LONG LIVE EARTH! XD
Tap to rate this tab
 
# A B C D E F G H I J K L M N O P Q R S T U V W X Y Z