Song name
# A B C D E F G H I J K L M N O P Q R S T U V W X Y Z

Alesana - Annabel tab

(GUITAR 1)
-3-----------------3------------------3---------------------------|
------------------------------------------------------------------|(x2)
----0-5-0-5/7------0-5-0-5/7-4----0-5-0-5/7-5b-4b-----------------|
------------------------------------------------------------------|
------------------------------------------------------------------|
------------------------------------------------------------------|
(GUITAR 3)
------------------------------------------------------------------|
------------------------------------------------------------------|(x2)
------5--------7-----9------9-7-5-3----5-----7----5b-4b-----------|
----3--3----5--5--7--7--7------------3--3--5--5-------------------|
--3--------5------7------7------------3-----5---------------------|
------------------------------------------------------------------|
Tap to rate this tab
 
# A B C D E F G H I J K L M N O P Q R S T U V W X Y Z