Alesana - The Thespian tab

Alesana.
The Thespian (Solo).
The Emptiness.
Tabbed by NightHawk666.

E|--------------------------------------------|
B|--------------------------------------------|
G|-------15--14r--12--12h14--12/10r-----------|
D|---/15--------------------------------------|
A|--------------------------------------------|
D|--------------------------------------------|

E|--------------------------------------------|
B|--------------------------------------------|
G|---/15-14r-----12--10--12--12/14------------|
D|--------------------------------------------|
A|--------------------------------------------|
D|--------------------------------------------|

E|-----------------------------------------------------------|
B|-----------------------------------------------------------|
G|---------10h12-10h12--/14--14-14--14/15--14-12--12/10------|
D|---10h12-----------------------------------------------12r-|
A|-----------------------------------------------------------|
D|-----------------------------------------------------------|

                                   (Play Quietly)
E|---------------------------------(13)-x8------|
B|----------------------------------------------|
G|----------------------------------------------|
D|--14--15--17----15---14----12-----------------|
A|----------------------------------------------|
D|----------------------------------------------|

I am 100% sure this is right. trust me.
Questions? Comments? Rate it!
Tap to rate this tab
 
# A B C D E F G H I J K L M N O P Q R S T U V W X Y Z