Song name
# A B C D E F G H I J K L M N O P Q R S T U V W X Y Z

Alesana - A Lunatics Lament tab

Alesana - A Lunatics Lament

Shawn's Bits (Rhythym)

Some of the timing in this song is crazy.
especially the second Post Chorus. 

* = Palm Mute
x = Mute
~ = Let Ring

Intro - Rest

Verse
e|-----------------------------------------------------------------------------------------|
B|-----------------------------------------------------------------------------------------|
G|-----------------------------------------------------------------------------------------|
D|-7x7x7x7x7x-8-8-8-8-8-8-8-8-10-10-10-10-10-10-10-10-12-12-12-12-12-12-12-12-10-10-10-10--|
A|-7x7x7x7x7x-8-8-8-8-8-8-8-8-10-10-10-10-10-10-10-10-12-12-12-12-12-12-12-12-10-10-10-10--| (x2)
D|-7x7x7x7x7x-8-8-8-8-8-8-8-8-10-10-10-10-10-10-10-10-12-12-12-12-12-12-12-12-10-10-10-10--|

Pre Chorus
e|----------------|
B|----------------|
G|----------------|
D|-7x7x7x7x7x-8~--|
A|-7x7x7x7x7x-8~--|
D|-7x7x7x7x7x-8~--|

Chorus
e|------------------------------------------------------------------------|
B|------------------------------------------------------------------------|
G|------------------------------------------------------------------------|
D|-0-0-0-0-0-0-0-0-5-5-5-5-7-7-7-7-8-8-8-8-8-8-8-8-10-10-10-10--10x--10x--|
A|-0-0-0-0-0-0-0-0-5-5-5-5-7-7-7-7-8-8-8-8-8-8-8-8-10-10-10-10--10x--10x--| (x2)
D|-0-0-0-0-0-0-0-0-5-5-5-5-7-7-7-7-8-8-8-8-8-8-8-8-10-10-10-10--10x--10x--|

Post Chorus
e|---------------------|
B|---------------------|
G|---------------------|
D|-0~--------0~--------|
A|-0~--------0~--------|
D|-0~--------0~--------|

Verse
e|-----------------------------------------------------------------------------------------|
B|-----------------------------------------------------------------------------------------|
G|-----------------------------------------------------------------------------------------|
D|-7x7x7x7x7x-8-8-8-8-8-8-8-8-10-10-10-10-10-10-10-10-12-12-12-12-12-12-12-12-10-10-10-10--|
A|-7x7x7x7x7x-8-8-8-8-8-8-8-8-10-10-10-10-10-10-10-10-12-12-12-12-12-12-12-12-10-10-10-10--| (x2)
D|-7x7x7x7x7x-8-8-8-8-8-8-8-8-10-10-10-10-10-10-10-10-12-12-12-12-12-12-12-12-10-10-10-10--|

Pre Chorus
e|----------------|
B|----------------|
G|----------------|
D|-7x7x7x7x7x-8~--|
A|-7x7x7x7x7x-8~--|
D|-7x7x7x7x7x-8~--|

Chorus
e|------------------------------------------------------------------------|
B|------------------------------------------------------------------------|
G|------------------------------------------------------------------------|
D|-0-0-0-0-0-0-0-0-5-5-5-5-7-7-7-7-8-8-8-8-8-8-8-8-10-10-10-10--10x--10x--|
A|-0-0-0-0-0-0-0-0-5-5-5-5-7-7-7-7-8-8-8-8-8-8-8-8-10-10-10-10--10x--10x--| (x2)
D|-0-0-0-0-0-0-0-0-5-5-5-5-7-7-7-7-8-8-8-8-8-8-8-8-10-10-10-10--10x--10x--|

Post Chorus
e|-----------------------------------------------------|
B|-----------------------------------------------------|
G|-----------------------------------------------------|
D|-0~--------0~----5557770~----0~----5557770~----0~----|
A|-0~--------0~----5557770~----0~----5557770~----0~----|
D|-0~--------0~----5557770~----0~----5557770~----0~----|

Bridge
e|------------------------------------------------------------------------|
B|------------------------------------------------------------------------|
G|------------------------------------------------------------------------|
D|-0-0-0-0-0-0-0-0-5-5-5-5-7-7-7-7-8-8-8-8-8-8-8-8-10-10-10-10--10x--10x--|
A|-0-0-0-0-0-0-0-0-5-5-5-5-7-7-7-7-8-8-8-8-8-8-8-8-10-10-10-10--10x--10x--| (x2)
D|-0-0-0-0-0-0-0-0-5-5-5-5-7-7-7-7-8-8-8-8-8-8-8-8-10-10-10-10--10x--10x--|

e|-----------|
B|-----------|
G|-----------|
D|-0~--------|
A|-0~--------|
D|-0~--------|

Chorus
e|------------------------------------------------------------------------|
B|------------------------------------------------------------------------|
G|------------------------------------------------------------------------|
D|-0-0-0-0-0-0-0-0-5-5-5-5-7-7-7-7-8-8-8-8-8-8-8-8-10-10-10-10--10x--10x--|
A|-0-0-0-0-0-0-0-0-5-5-5-5-7-7-7-7-8-8-8-8-8-8-8-8-10-10-10-10--10x--10x--| (x2)
D|-0-0-0-0-0-0-0-0-5-5-5-5-7-7-7-7-8-8-8-8-8-8-8-8-10-10-10-10--10x--10x--|

Outro
e|---------------------|
B|---------------------|
G|---------------------|
D|-0x--0x--101010-888--|
A|-0x--0x--101010-888--| (x4)
D|-0x--0x--101010-888--|

That's It :) Enjoy 

Tap to rate this tab
# A B C D E F G H I J K L M N O P Q R S T U V W X Y Z