Alesana - Curse Of The Virgin Canvas tab

Alesana - Curse Of The Virgin Canvas

Tuning Drop D (e,B,G,D,A,D)

* = Palm Mute
x = Mute
~ = Let Ring

Intro
e|-----------------------------|
B|-----------------------------|
G|-----------------------------|
D|-0~----10~--7~--8~----10~----|
A|-0~----10~--7~--8~----10~----| (x2)
D|-0~----10~--7~--8~----10~----|

e|---------|
B|---------|
G|---------|
D|-101010--|
A|-101010--|
D|-101010--|

Verse (x2)
e|--------|
B|--------|
G|--------|
D|-00x----|
A|-00x----| (x2)
D|-00x----|

e|---------------------------------|
B|---------------------------------|
G|---------------------------------|
D|-8-8-8-8-8-8-8-8-7-7-7-7-7-7-7-7-|
A|-8-8-8-8-8-8-8-8-7-7-7-7-7-7-7-7-|
D|-8-8-8-8-8-8-8-8-7-7-7-7-7-7-7-7-|

Pre Chorus (Clean)
e|--------------------------------|
B|--------------------------------|
G|--------------------------------|
D|-8~--10~--12~--7~--8~--10~--0~--|
A|-8~--10~--12~--7~--8~--10~--0~--|
D|-8~--10~--12~--7~--8~--10~--0~--|

Chorus (x2)
e|--------------------------------------|
B|--------------------------------------|
G|--------------------------------------|
D|-0-0-0-0-0-0-0-0-10-10-10-10-7-7-7-7--|
A|-0-0-0-0-0-0-0-0-10-10-10-10-7-7-7-7--|
D|-0-0-0-0-0-0-0-0-10-10-10-10-7-7-7-7--|

e|------------------------------------|
B|------------------------------------|
G|------------------------------------|
D|-8-8-8-8-8-8-8-8-55555555-77777777--|
A|-8-8-8-8-8-8-8-8-55555555-77777777--|
D|-8-8-8-8-8-8-8-8-55555555-77777777--|
                   ******** ********
Verse (x2)
e|--------|
B|--------|
G|--------|
D|-00x----|
A|-00x----| (x2)
D|-00x----|

e|---------------------------------|
B|---------------------------------|
G|---------------------------------|
D|-8-8-8-8-8-8-8-8-7-7-7-7-7-7-7-7-|
A|-8-8-8-8-8-8-8-8-7-7-7-7-7-7-7-7-|
D|-8-8-8-8-8-8-8-8-7-7-7-7-7-7-7-7-|

Pre Chorus (Clean)
e|--------------------------------|
B|--------------------------------|
G|--------------------------------|
D|-8~--10~--12~--7~--8~--10~--0~--|
A|-8~--10~--12~--7~--8~--10~--0~--|
D|-8~--10~--12~--7~--8~--10~--0~--|

Chorus (x2)
e|--------------------------------------|
B|--------------------------------------|
G|--------------------------------------|
D|-0-0-0-0-0-0-0-0-10-10-10-10-7-7-7-7--|
A|-0-0-0-0-0-0-0-0-10-10-10-10-7-7-7-7--|
D|-0-0-0-0-0-0-0-0-10-10-10-10-7-7-7-7--|

e|------------------------------------|
B|------------------------------------|
G|------------------------------------|
D|-8-8-8-8-8-8-8-8-55555555-77777777--|
A|-8-8-8-8-8-8-8-8-55555555-77777777--|
D|-8-8-8-8-8-8-8-8-55555555-77777777--|
                   ******** ********

Breakdown (This confuses me)
e|---------------------------------------|
B|---------------------------------------|
G|---------------------------------------|
D|-0--0--0--0--000000000000000000000000--|
A|-0--0--0--0--000000000000000000000000--|
D|-0--0--0--0--000000000000000000000000--|
                ***** ***** ***** ***** 

Breakdown Part 2 - Rest

Breakdown Part 3 - Rest

Breakdown Part 4
e|--------------------------------------|
B|--------------------------------------|
G|--------------------------------------|
D|-7~----7~--5~--3~----5-5-5-5-5-5-5-5--|
A|-7~----7~--5~--3~----5-5-5-5-5-5-5-5--|
D|-7~----7~--5~--3~----5-5-5-5-5-5-5-5--|

Breakdown Part 5 (x2)
e|---------------------|
B|---------------------|
G|---------------------|
D|-7-7-7-7--7-7-7--77--|
A|-7-7-7-7--7-7-7--77--| (x2)
D|-7-7-7-7--7-7-7--77--|

e|---------------------|
B|---------------------|
G|---------------------|
D|-3-3-3-3--3-3-3--33--|
A|-3-3-3-3--3-3-3--33--|
D|-3-3-3-3--3-3-3--33--|

e|---------------------|
B|---------------------|
G|---------------------|
D|-5-5-5-5--5-5-5--55--|
A|-5-5-5-5--5-5-5--55--|
D|-5-5-5-5--5-5-5--55--|

Pre Chorus (Clean)
e|--------------|
B|--------------|
G|--------------|
D|-8~--10~--0~--|
A|-8~--10~--0~--|
D|-8~--10~--0~--|

Chorus (x2)
e|--------------------------------------|
B|--------------------------------------|
G|--------------------------------------|
D|-0-0-0-0-0-0-0-0-10-10-10-10-7-7-7-7--|
A|-0-0-0-0-0-0-0-0-10-10-10-10-7-7-7-7--|
D|-0-0-0-0-0-0-0-0-10-10-10-10-7-7-7-7--|

e|------------------------------------|
B|------------------------------------|
G|------------------------------------|
D|-8-8-8-8-8-8-8-8-55555555-77777777--|
A|-8-8-8-8-8-8-8-8-55555555-77777777--|
D|-8-8-8-8-8-8-8-8-55555555-77777777--|
                   ******** ********

Breakdown (This confuses me)
e|---------------------------------------|
B|---------------------------------------|
G|---------------------------------------|
D|-0--0--0--0--000000000000000000000000--|
A|-0--0--0--0--000000000000000000000000--|
D|-0--0--0--0--000000000000000000000000--|
Tap to rate this tab
 
# A B C D E F G H I J K L M N O P Q R S T U V W X Y Z