Song name
# A B C D E F G H I J K L M N O P Q R S T U V W X Y Z

Alesana - A Forbidden Dance tab

Please rate and/or leave your feedback.

Song: A Forbidden Dance
Band: Alesana
Album: A Place Where The Sun Is Silent
Tabbed by: Mr. Picky
Tuning: Drop D



Stay to the path!
Trust only your faith, to falter is...

e||--------------------------------------||
B||--------------------------------------||
G||--------------------------------------||
D||---10--8-10-8-10-8-10-8-10-8-10-6-8---||
A||---10--8-10-8-10-8-10-8-10-8-10-6-8---||
D||---10--8-10-8-10-8-10-8-10-8-10-6-8---||

to hasten your doom
I dare not say my hope is slipping away

e||--------------------------------------||
B||--------------------------------------||
G||----------------------8~10~-----------||
D||---10--8-10-8-10-8-10-8~10~6---8-88---||
A||---10--8-10-8-10-8-10-6~8~-6---8-88---||
D||---10--8-10-8-10-8-10------6---8-88---||

Such gleaming fangs mock the gilded gates

e||--------------------------------------||
B||--------------------------------------||
G||--------------------------------------||
D||---10--8-10-8-10-8-10-8-10-8-10-6-8---||
A||---10--8-10-8-10-8-10-8-10-8-10-6-8---||
D||---10--8-10-8-10-8-10-8-10-8-10-6-8---||

The way of the true
Tell me what to do sweet spirit

e||--------------------------------------||
B||--------------------------------------||
G||----------------------8~10~-----------||
D||---10--8-10-8-10-8-10-8~10~6---8-88---||
A||---10--8-10-8-10-8-10-6~8~-6---8-88---||
D||---10--8-10-8-10-8-10------6---8-88---||

Yea yea yea yea yea!
Your wildest dreams have come true!
Welcome to what I call hell!
Help me!

e||-----------------------||
B||-----------------------||
G||---55555555-55555555---||
D||---55555555-55555555---||
A||---33333333-33333333---||
D||-----------------------||

Infatuation has strangled me again
There's no resisting the tangled web of your secret fantasy
A strange sensation is falling over me
I may be blind but I can see your kiss will punish me
Your kiss will ruin me

e||-----------------------------------------||
B||-----------------------------------------||     _
G||---55555555-------------------88888888---|| \/  _|
D||---55555555-66666666-88888888-88888888---|| /\ |_
A||---33333333-66666666-88888888-66666666---||
D||------------66666666-88888888------------||

(Will ruin me)

Guitar I
e||--------------------------------------------------------||
B||--------------------------------------------------------|| 
G||--77--------------------------/7---7--------------------||
D||-----10-9-10-----10-10-979~------7---10-7---10-9-7-/9---||
A||--------------------------------------------------------||
D||--------------------------------------------------------||

Guitar II

e||-----------------------------------------||
B||-----------------------------------------||
G||-----------------------------------------||
D||--1~----3~----5~--------1~----3~----5~---||
A||--1~----3~----5~--------1~----3~----5~---||
D||--1~----3~----5~--------1~----3~----5~---||

Well, here we go!
I tear myself from the beaten path

e||--------------------------------------||
B||--------------------------------------||
G||--------------------------------------||
D||---10--8-10-8-10-8-10-8-10-8-10-6-8---||
A||---10--8-10-8-10-8-10-8-10-8-10-6-8---||
D||---10--8-10-8-10-8-10-8-10-8-10-6-8---||

never to look back
And still I glance, the lure of a forbidden dance

e||--------------------------------------||
B||--------------------------------------||
G||----------------------8~10~-----------||
D||---10--8-10-8-10-8-10-8~10~6---8-88---||
A||---10--8-10-8-10-8-10-6~8~-6---8-88---||
D||---10--8-10-8-10-8-10------6---8-88---||

I'm hypnotized by the sordid nymph

e||--------------------------------------||
B||--------------------------------------||
G||--------------------------------------||
D||---10--8-10-8-10-8-10-8-10-8-10-6-8---||
A||---10--8-10-8-10-8-10-8-10-8-10-6-8---||
D||---10--8-10-8-10-8-10-8-10-8-10-6-8---||

who races from me
Suddenly, my eyes see clearly

e||--------------------------------------||
B||--------------------------------------||
G||----------------------8~10~-----------||
D||---10--8-10-8-10-8-10-8~10~6---8-88---||
A||---10--8-10-8-10-8-10-6~8~-6---8-88---||
D||---10--8-10-8-10-8-10------6---8-88---||


Yea yea yea yea yea!
Your wildest dreams have come true!
Welcome to what I call hell!
Help me!

e||-----------------------||
B||-----------------------||
G||---55555555-55555555---||
D||---55555555-55555555---||
A||---33333333-33333333---||
D||-----------------------||

Infatuation has strangled me again
There's no resisting the tangled web of your secret fantasy
A strange sensation is falling over me
I may be blind but I can see your kiss will punish me

e||-----------------------------------------||
B||-----------------------------------------||     _
G||---55555555-------------------88888888---|| \/  _|
D||---55555555-66666666-88888888-88888888---|| /\ |_
A||---33333333-66666666-88888888-66666666---||
D||------------66666666-88888888------------||

I fall down on my knees in anticipation of the dawning
Curiosity is laughing
I decide that if I'm to die here I will not go calmly
I will not go down without a fight

e||-----------------------------------------||
B||-----------------------------------------||     _
G||---55555555----------88888888------------|| \/  _|
D||---55555555-88888888-88888888-66666666---|| /\ |_
A||---33333333-88888888-66666666-66666666---||
D||------------88888888----------66666666---||
      ........ ........ ........ ........

(Solo)
Help me!

e||-----------------------------------------||
B||-----------------------------------------||
G||---55555555-------------------88888888---||
D||---55555555-66666666-88888888-88888888---||
A||---33333333-66666666-88888888-66666666---||
D||------------66666666-88888888------------||

Infatuation has strangled me again
There's no resisting the tangled web of your secret fantasy
A strange sensation is falling over me
I may be blind but I can see your kiss will punish me
Your kiss will ruin me

e||-----------------------------------------||
B||-----------------------------------------||     _
G||---55555555-------------------88888888---|| \/  _|
D||---55555555-66666666-88888888-88888888---|| /\ |_
A||---33333333-66666666-88888888-66666666---||
D||------------66666666-88888888------------||

(outro)

e||------------------------||
B||------------------------||    _
G||------------------------|| \/ _|
D||---1111-3333-55555555---|| /\ _|
A||---1111-3333-55555555---||
D||---1111-3333-55555555---||

e||-------------------||
B||-------------------||
G||-------------------||
D||---1111-3333-5-5---||
A||---1111-3333-5-5---||
D||---1111-3333-5-5---||

-- END --
Tap to rate this tab
 
# A B C D E F G H I J K L M N O P Q R S T U V W X Y Z