Song name
# A B C D E F G H I J K L M N O P Q R S T U V W X Y Z

Alesana - A Forbidden Dance tab

Thanks to Radketuck from Youtube!!!!!!!
And Mr. Picky from UG!!!!

Tuning: Drop D

NOTE: I'm not sure about those 8's on the chorus. Help? :)


"Trust only your faith..."

e|--------------------------------------|
B|--------------------------------------|
G|-5-5--7777878-5/1--8--10--12----------|
D|--------------------------------------|
A|--------------------------------------|
D|--------------------------------------|



e|--------------------------------------|
B|--------------------------------------|
G|--5-5--7777878-5/1--------------------|
D|--------------------------------------|
A|--------------------------------------|
D|--------------------------------------|


"I dare not say my hope is slipping away..."


e|-------------------------------------------------------------|
B|-------------------------------------------------------------|
G|--8~-----12/10101010-12/10-12/10-----------------------------|
D|--8~-----x-/x-x-x-x--x-/x--x-/x------------------------------|
A|---------10/8-8-8-8--10/8--10/8------------------------------|
D|-------------------------------------------------------------|

"Such gleaming fangs mock the gilded gates..."

e|--------------------------------------|
B|--------------------------------------|
G|-5-5--7777878-5/1--8--10--12----------|
D|--------------------------------------|
A|--------------------------------------|
D|--------------------------------------|


e|--------------------------------------|
B|--------------------------------------|
G|--5-5--7777878-5/1--------------------|
D|--------------------------------------|
A|--------------------------------------|
D|--------------------------------------|

"Tell me what to do sweet spirit..."

e|------------------------------------------------------------|
B|------------------------------------------------------------|
G|--8~-----12/10101010-12/10-12/10----------------------------|
D|--8~-----x-/x-x-x-x--x-/x--x-/x-----------------------------|
A|---------10/8-8-8-8--10/8--10/8-----------------------------|
D|------------------------------------------------------------|

"Yea yea yea yea yea!
Your wildest dreams have come true!
Welcome to what I call hell!
Help me...!"

e|-------------------------------------|      
B|-------------------------------------|  (Play this just before the chorus)
G|-------------------------------------| 
D|---12--12--12--12--------------------|
A|---x---x---x---x---------------------|
D|---10--10--10--10--------------------|

"Infatuation has strangled me again
There's no resisting the tangled web of your secret fantasy
A strange sensation is falling over me
I may be blind but I can see your kiss will punish me
Your kiss will ruin me..."

e|------------------------------------------------------------------------|
B|------------------------------------------------------------------------|
G|----8~---8~---8~------10~--13--12--10---------8-8-8-8-8-8---------------|
D|--8----8----8--------------------------10~----8-8-8-8-8-8----12----10~--|
A|------------------------------------------------------------------------|
D|------------------------------------------------------------------------|

e|------------------------------------------------|
B|------------------------------------------------|
G|--10---13--121212-13--15--10~-------------------|
D|------------------------------------------------|
A|------------------------------------------------|
D|------------------------------------------------|

(Will ruin me...)

THANKS TO MR. PICKY 
e|-----------------------------------------------------------------|
B|-----------------------------------------------------------------|
G|--7-7--------------------------/7---7----------------------------|
D|------1091010--10-9-7-9~----------7-----10--7~--10--9---7--/--9--|
A|-----------------------------------------------------------------|
D|-----------------------------------------------------------------|


"Well, here we go!
I tear myself from the beaten path..."

e|--------------------------------------|
B|--------------------------------------|
G|-5-5--7777878-5/1--8--10--12----------|
D|--------------------------------------|
A|--------------------------------------|
D|--------------------------------------|

e|--------------------------------------|
B|--------------------------------------|
G|--5-5--7777878-5/1--------------------|
D|--------------------------------------|
A|--------------------------------------|
D|--------------------------------------|

"And still I glance, the lure of a forbidden dance..."

e|------------------------------------------------------------|
B|------------------------------------------------------------|
G|--8~-----12/10101010-12/10-12/10----------------------------|
D|--8~-----x-/x-x-x-x--x-/x--x-/x-----------------------------|
A|---------10/8-8-8-8--10/8--10/8-----------------------------|
D|------------------------------------------------------------|

"I'm hypnotized by the sordid nymph..."


e|--------------------------------------|
B|--------------------------------------|
G|-5-5--7777878-5/1--8--10--12----------|
D|--------------------------------------|
A|--------------------------------------|
D|--------------------------------------|

e|--------------------------------------|
B|--------------------------------------|
G|--5-5--7777878-5/1--------------------|
D|--------------------------------------|
A|--------------------------------------|
D|--------------------------------------|

"Suddenly, my eyes see clearly..."

e|------------------------------------------------------------|
B|------------------------------------------------------------|
G|--8~-----12/10101010-12/10-12/10----------------------------|
D|--8~-----x-/x-x-x-x--x-/x--x-/x-----------------------------|
A|---------10/8-8-8-8--10/8--10/8-----------------------------|
D|------------------------------------------------------------|


"Yea yea yea yea yea!
Your wildest dreams have come true!
Welcome to what I call hell!
Help me...!


e|-------------------------------------|      
B|-------------------------------------|  (Play this just before the chorus)
G|-------------------------------------| 
D|---12--12--12--12--------------------|
A|---x---x---x---x---------------------|
D|---10--10--10--10--------------------|



[REPEAT CHORUS]


"I fall down on my knees in anticipation of the dawning
Curiosity is laughing
I decide that if I'm to die here I will not go calmly
I will not go down without a fight..."

e|-----------------------------------------------------------------|
B|-----------------------------------------------------------------|
G|--121212---------121212---------101010--------101010-------------|
D|---------101010---------101010---------101010---------101010-----|
A|-----------------------------------------------------------------|
D|-----------------------------------------------------------------|
    . . .  . . .   . . .  . . .   . . .  . . .  . . .   . . .



The solo is the chorus is just like the chorus...

[REPEAT CHORUS]

Outro...

e|----------------------------------------------------------------|
B|----------------------------------------------------------------|
G|----------------------------------------------------------------|
D|--11111-33333-5555555555-11111-33333-5-5------------------------|
A|--11111-33333-5555555555-11111-33333-5-5------------------------|
D|--11111-33333-5555555555-11111-33333-5-5------------------------|

(The Outro is just like Mr. Picky's Tab... So... Thanks to him, I guess?) :D
Tap to rate this tab
 
# A B C D E F G H I J K L M N O P Q R S T U V W X Y Z