Song name
# A B C D E F G H I J K L M N O P Q R S T U V W X Y Z

Alesana - Beyond The Sacred Glass tab

Please rate and/or leave your feedback.

Song: Beyond The Sacred Glass
Band: Alesana
Album: A Place Where The Sun Is Silent
Tabbed by: Mr. Picky
Tuning: Drop D

Intro:
Guitar 1
e||-------------------------------------||
B||-------------------------------------||
G||-------------------------------------||----
D||--------77---------------------------||    |
A||----5h7-----5-(0)-----5h7-88-7-(0)---||    |
D||-------------------------------------||    |
Guitar 2                                      |- Repeat til 1:05
e||----------------||                         | (the zero's are not played
B||----------------||                         | until 0:49)
G||---777777777----||-------------------------
D||---xxxxxxxxx----||
A||---555555555----||
D||----------------||

Intro continued...
Guitar 3
e||--------------------------------------------------||
B||--------------------------------------------------||
G||--------------------------------------------------||
D||----3~----5~----7~--------3~----5~----7~-----5----||
A||----3~----5~----7~--------3~----5~----7~-----5----||
D||----3~----5~----7~--------3~----5~----7~-----5----||
                                                * - do not ring

e||----------------------------------------||
B||----------------------------------------||
G||----------------------------------5~----||
D||----333333333333-5~--777777777777-5~----||
A||----333333333333-5~--777777777777-3~----||
D||----333333333333-5~--777777777777-------||

e||-------------------------------------||
B||-------------------------------------||
G||-------------------------------------||
D||----333333333333-7~--555555566666----||
A||----333333333333-7~--555555577777----||
D||----333333333333-7~--555555566666----||

Verse:
e||-------------------------------------------||
B||-------------------------------------------||
G||-----------------5555----------7777--------|| \/ |_| (on the 4th loop
D||----77777777-55555555-33333333-77775555----|| /\   |  do not palm mute
A||----77777777-55553333-33333333-55555555----||         the last 4 (555))
D||----77777777-5555-----33333333-----5555----||
       ........ ........ ........ ........

Prechorus:
e||--------------------------------------||
B||--------------------------------------||    _
G||--------------------5~--54------------|| \/ _|
D||----7~--75--3~--35--5~--54--2~--25----|| /\|_
A||----7~--75--3~--35--3~--32--2~--25----||
D||----7~--75--3~--35----------2~--25----||

Chorus:
e||----------------------------------------||
B||----------------------------------------||
G||----------------------------------5~----||
D||----333333333333-5~--777777777777-5~----||
A||----333333333333-5~--777777777777-3~----||
D||----333333333333-5~--777777777777-------||

e||-------------------------------------||
B||-------------------------------------||
G||-------------------------------------||
D||----333333333333-7~--555555566666----||
A||----333333333333-7~--555555577777----||
D||----333333333333-7~--555555566666----||

Verse:
e||-------------------------------------------||
B||-------------------------------------------||     _
G||-----------------5555----------7777--------|| \/  _| (it's quiet at first
D||----77777777-55555555-33333333-77775555----|| /\ |_   then palm mute on
A||----77777777-55553333-33333333-55555555----||         the next loop)
D||----77777777-5555-----33333333-----5555----||
       ........ ........ ........ ........

Prechorus:
e||--------------------------------------||
B||--------------------------------------||    _
G||--------------------5~--54------------|| \/ _|
D||----7~--75--3~--35--5~--54--2~--25----|| /\|_
A||----7~--75--3~--35--3~--32--2~--25----||
D||----7~--75--3~--35----------2~--25----||

Chorus:
e||----------------------------------------||
B||----------------------------------------||
G||----------------------------------5~----||
D||----333333333333-5~--777777777777-5~----||
A||----333333333333-5~--777777777777-3~----||
D||----333333333333-5~--777777777777-------||

e||-------------------------------------||
B||-------------------------------------||
G||-------------------------------------||
D||----333333333333-7~--555555566666----||
A||----333333333333-7~--555555577777----||
D||----333333333333-7~--555555566666----||

Breakdown:
e||---------------------------||
B||---------------------------||
G||---------------------------|| \/ |_|
D||----7533-7533-7533-7533----|| /\   |
A||----7533-7533-7533-7533----||
D||----7533-7533-7533-7533----||

Solo:
(I don't know this part. but these are the chords)
e||-----------------------------||
B||-----------------------------||     _
G||--------------------55-------|| \/   |
D||----333333333-77777-55555----|| /\   |
A||----333333333-77777-33555----||
D||----333333333-77777---555----||

e||---------------------------------||
B||---------------------------------||
G||---------------------------------||
D||----333333333-3-3-3-3-3-3-3-3----||
A||----333333333-3-3-3-3-3-3-3-3----||
D||----333333333-3-3-3-3-3-3-3-3----||


Chorus (5:11):
e||----------------------------------------||
B||----------------------------------------||
G||----------------------------------5~----||
D||----333333333333-5~--777777777777-5~----||--
A||----333333333333-5~--777777777777-3~----||  |     _
D||----333333333333-5~--777777777777-------||  | \/  _|
                                               | /\ |_
e||-------------------------------------||     |
B||-------------------------------------||     |
G||-------------------------------------||-----
D||----333333333333-7~--555555566666----||
A||----333333333333-7~--555555577777----||
D||----333333333333-7~--555555566666----||

Outro:
e||---------------------------||
B||---------------------------||
G||---------------------------|| \/ |_|
D||----7533-7533-7533-7533----|| /\   |
A||----7533-7533-7533-7533----||
D||----7533-7533-7533-7533----||

-- END --
Tap to rate this tab
# A B C D E F G H I J K L M N O P Q R S T U V W X Y Z