Song name
# A B C D E F G H I J K L M N O P Q R S T U V W X Y Z

Alesana - Circle Vii Sins Of The Lion tab

Please rate and/or leave your feedback.

Song: Circle VII: Sins Of The Lion
Band: Alesana
Album: A Place Where The Sun Is Silent
Tabbed by: Mr. Picky
Tuning: Drop D

Verse:
e||-----------------------------------------------||
B||-----------------------------------------------||
G||-----------------------------333-3-333-3-33----||
D||-------------000-0-000-0-00--333-3-333-3-33----||
A||-------------000-0-000-0-00--111-1-111-1-11----||
D||----/slide/--000-0-000-0-00--------------------||
                ...   ...       ...   ...

e||----------------------------------||
B||----------------------------------||
G||----555-5-555-5-55----------------||
D||----555-5-555-5-55--777-7-77-7----||
A||----333-3-333-3-33--777-7-77-7----||
D||--------------------777-7-77-7----||
       ...   ...       ...   ..

e||--------------------------------------||
B||--------------------------------------||
G||--------------------333-3-333-3-33----||
D||----000-0-000-0-00--333-3-333-3-33----||
A||----000-0-000-0-00--111-1-111-1-11----||
D||----000-0-000-0-00--------------------||
       ...   ...       ...   ...

e||-------------------------------||
B||-------------------------------||
G||----555-5-555-5-55-------------||
D||----555-5-555-5-55--7-7-7-7----||
A||----333-3-333-3-33--7-7-7-7----||
D||--------------------7-7-7-7----||
       ...   ...

Prechorus:
I'm not really sure about this part, but I think it's D - G - D - G
e||------------------------------------------------||
B||------------------------------------------------||     _
G||------------------------------------------------|| \/  _|
D||---------------------------3---3---3---3---3----|| /\ |_
A||----058-058-058-058-058---3---3---3---3---3-----||
D||-------------------------3---3---3---3---3------||

Tremolo picking (these are ten's, not one-zero)
e||---------------------------------------------------||
B||---------------------------------------------------||
G||---------------------------------------------------||
D||---------------------------------------------------||
A||---------------------------------------------------||
D||----00000000-00000000-1010101010101010-88888888----||
                         
e||--------------------------------------------------------||
B||--------------------------------------------------------||
G||--------------------------------------------------------||
D||--------------------------------------------10-8-7h8----||
A||--------------------------------------------10-8-7h8----|| 
D||----00000000-00000000-1010101010101010-8888-10-8-7h8----||

e||------------------------------------------------------------------||
B||------------------------------------------------------------------||
G||------------------------------------------------------------------||
D||------------------------------------------------------------------||
A||----00-00-00-00-00-00-00-00-00-00-00-00-00-00-00-00-00-00-00-0----||
D||----00-00-00-00-00-00-00-00-00-00-00-00-00-00-00-00-00-00-00-0----||

Chorus:
e||-------------------------------------------||
B||-------------------------------------------||     _
G||----77777777-55555555----------------------|| \/  _|
D||----77777777-55555555-77777777-88888888----|| /\ |_
A||----55555555-33333333-77777777-88888888----||
D||----------------------77777777-88888888----||

Prechorus:
I'm not really sure about this part, but I think it's D - G - D - G
e||------------------------------------------------||
B||------------------------------------------------||
G||------------------------------------------------||
D||---------------------------3---3---3---3---3----||
A||----058-058-058-058-058---3---3---3---3---3-----||
D||-------------------------3---3---3---3---3------||

Tremolo picking (these are ten's, not one-zero)
e||---------------------------------------------------||
B||---------------------------------------------------||
G||---------------------------------------------------||
D||---------------------------------------------------||
A||---------------------------------------------------||
D||----00000000-00000000-1010101010101010-88888888----||
                         
e||--------------------------------------------------------||
B||--------------------------------------------------------||
G||--------------------------------------------------------||
D||--------------------------------------------10-8-7h8----||
A||--------------------------------------------10-8-7h8----|| 
D||----00000000-00000000-1010101010101010-8888-10-8-7h8----||

e||------------------------------------------------------------------||
B||------------------------------------------------------------------||
G||------------------------------------------------------------------||
D||------------------------------------------------------------------||
A||----00-00-00-00-00-00-00-00-00-00-00-00-00-00-00-00-00-00-00-0----||
D||----00-00-00-00-00-00-00-00-00-00-00-00-00-00-00-00-00-00-00-0----||

Chorus:
e||-------------------------------------------||
B||-------------------------------------------||     _
G||----77777777-55555555----------------------|| \/  _|
D||----77777777-55555555-77777777-88888888----|| /\ |_
A||----55555555-33333333-77777777-88888888----||
D||----------------------77777777-88888888----||

Bridge:
Not sure about this part again. But I think it's D - Bb

Chorus:
e||-------------------------------------------||
B||-------------------------------------------||     _
G||----77777777-55555555----------------------|| \/  _|
D||----77777777-55555555-77777777-88888888----|| /\ |_
A||----55555555-33333333-77777777-88888888----||
D||----------------------77777777-88888888----||

Outro:
e||---------------------------------------------||
B||---------------------------------------------||
G||---------------------------------------35----||
D||----000-0-000-0-00-00---000-0-000-0-00-35----||
A||----000-0-000-0-00-00---000-0-000-0-00-13----|| 
D||----000-0-000-0-00-00---000-0-000-0-00-------||
       ...   ...   ..      ...   ...   ..

e||---------------------------------------||
B||---------------------------------------||
G||---------------------------------------||
D||----000-0-000-0-00-00---000-0-000-0----||
A||----000-0-000-0-00-00---000-0-000-0----|| 
D||----000-0-000-0-00-00---000-0-000-0----||
       ...   ...   ..      ...   ...  

e||-----------------------------||
B||-----------------------------||
G||-----------------5555--35----||
D||----7777777-8888-5555--35----||
A||----5555555-5555-5555--13----|| 
D||-----------------------------||

e||------------------------------||
B||------------------------------||
G||-----------------5555--357----||
D||----7777777-8888-5555--357----||
A||----5555555-5555-5555--135----|| 
D||------------------------------||

-- END --
Tap to rate this tab
# A B C D E F G H I J K L M N O P Q R S T U V W X Y Z