Song name
# A B C D E F G H I J K L M N O P Q R S T U V W X Y Z

Alesana - The Fiend tab

Please rate and/or leave your feedback.

Song: The Fiend
Band: Alesana
Album: A Place Where The Sun Is Silent
Tabbed by: Mr. Picky
Tuning: Drop D

Intro:
e||-----------------------------------------------||
B||-----------------------------------------------||     _
G||-------------5555-------3333~----5555----------|| \/  _|
D||----0000~----5555-7777~-3333~----5555-7777~----|| /\ |_
A||----0000~----3333-7777~-1111~----3333-7777~----||
D||----0000~---------7777~---------------7777~----||

e||------------------------------||
B||------------------------------||
G||------------------------------||
D||----0-0-0-0-0-0-0-0-----------||
A||----0-0-0-0-0-0-0-0--pause----||
D||----0-0-0-0-0-0-0-0-----------||

Verse:
e||---------------------------------------------------------------||
B||---------------------------------------------------------------||
G||--------------------------33333333---------------55553333------||
D||----/-----/---0---0---0---33333333---0---0---0---55553333-0----||
A||----/slide/---0---0---0---11111111---0---0---0---33331111-0----||
D||----/-----/---0---0---0--------------0---0---0------------0----||

e||------------------------------------||
B||------------------------------------||
G||------------------------------------||
D||----0-0----0-0----0---0----77777----||
A||----0-0----0-0----0---0----77777----||
D||----0-0----0-0----0---0----77777----||

Chorus:
e||-------------------------------------------||
B||-------------------------------------------||     _
G||----33333333-77777777-55555555-5555--------|| \/  _|
D||----33333333-77777777-55555555-55553355----|| /\ |_
A||----11111111-55555555-33333333-33333355----||
D||-----------------------------------3355----||

e||-----------------------------------------------||
B||-----------------------------------------------||
G||-------------5555-------3333~----5555----------||
D||----0000~----5555-7777~-3333~----5555-7777~----||
A||----0000~----3333-7777~-1111~----3333-7777~----||
D||----0000~---------7777~---------------7777~----||

Verse:
e||------------------------------------------||
B||------------------------------------------||     _
G||------------------------------3333--77----|| \/  _|
D||----0000000-00000000-00000000-33335577----|| /\ |_
A||----0000000-00000000-00000000-11115555----||
D||----0000000-00000000-00000000-----55------||

Chorus:
e||-------------------------------------------||
B||-------------------------------------------||     _
G||----33333333-77777777-55555555-5555--------|| \/  _|
D||----33333333-77777777-55555555-55553355----|| /\ |_
A||----11111111-55555555-33333333-33333355----||
D||-----------------------------------3355----||

Bridge:
e||-------------------------------------------||
B||-------------------------------------------||     _
G||----33333333-77777777-55555555-55555555----|| \/  _|
D||----33333333-77777777-55555555-55555555----|| /\ |_
A||----11111111-55555555-33333333-33333333----||
D||-------------------------------------------||

e||-------------------------------------------||
B||-------------------------------------------||     _
G||----33333333-33333333-77777777-77777777----|| \/  _|
D||----33333333-33333333-77777777-77777777----|| /\ |_
A||----11111111-11111111-55555555-55555555----||
D||-------------------------------------------||

Chorus:
e||-------------------------------------------||
B||-------------------------------------------||     _
G||----33333333-77777777-55555555-5555--------|| \/  _|
D||----33333333-77777777-55555555-55553355----|| /\ |_
A||----11111111-55555555-33333333-33333355----||
D||-----------------------------------3355----||

Outro:
e||-------------------------------------------||
B||-------------------------------------------||     _
G||----33333333-77777777-55555555-55555555----|| \/  _|
D||----33333333-77777777-55555555-55555555----|| /\ |_
A||----11111111-55555555-33333333-33333333----||
D||-------------------------------------------||

e||----------------------------------------------||
B||----------------------------------------------||
G||-------------3~--5~------------3~--5~---------||
D||----0~-------3~--5~---0~-------3~--5~---0~----||
A||----0~-------1~--3~---0~-------1~--3~---0~----||
D||----0~----------------0~----------------0~----||

-- END --
Tap to rate this tab
# A B C D E F G H I J K L M N O P Q R S T U V W X Y Z