Song name
# A B C D E F G H I J K L M N O P Q R S T U V W X Y Z

Alesana - Lullaby Of The Crucified tab

Please rate and/or leave your feedback.

Song: Lullaby Of The Crucified
Band: Alesana
Album: A Place Where The Sun Is Silent
Tabbed by: Mr. Picky
Tuning: Drop D

Intro:
e||-----------------------------------------------||
B||-----------------------------------------------||     _
G||------2-2-2-----2-2-52----2-2-2-----22---52----|| \/  _|
D||-----3-3-3-3---2-2-2-----3-3-3-3---3----3------|| /\ |_
A||----1~--------0~--------5~--------3------------||
D||-----------------------------------------------||

Verse:
e||-------------------------------------------||
B||-------------------------------------------||    _
G||----------------------77777777-5555--------|| \/ _|
D||----88888888-88887777-77777777-55557777----|| /\|_
A||----88888888-88887777-55555555-33337777----||
D||----88888888-88887777--------------7777----||

Prechorus:
e||------------------------------------------------||
B||------------------------------------------------||
G||----33-xx-55-xx-77-xx-5577---33-xx-55-xx--------||
D||----33-xx-55-xx-77-xx-5577---33-xx-55-xx--7~----||
A||----11-xx-33-xx-55-xx-3355---11-xx-33-xx--7~----||
D||------------------------------------------7~----||

Chorus:
e||------------------------------------------||
B||------------------------------------------||    _
G||----77777777---------33333333-33335555----|| \/ _|
D||----77777777-3577777-33333333-33335555----|| /\|_
A||----55555555-3577777-11111111-11113333----|| 
D||-------------3577777----------------------||

Verse:
e||-------------------------------------------||
B||-------------------------------------------||    _
G||----------------------77777777-5555--------|| \/ _|
D||----88888888-88887777-77777777-55557777----|| /\|_
A||----88888888-88887777-55555555-33337777----||
D||----88888888-88887777--------------7777----||

Prechorus:
e||------------------------------------------------||
B||------------------------------------------------||
G||----33-xx-55-xx-77-xx-5577---33-xx-55-xx--------||
D||----33-xx-55-xx-77-xx-5577---33-xx-55-xx--7~----||
A||----11-xx-33-xx-55-xx-3355---11-xx-33-xx--7~----||
D||------------------------------------------7~----||

Chorus:
e||------------------------------------------||
B||------------------------------------------||    _
G||----77777777---------33333333-33335555----|| \/ _|
D||----77777777-3577777-33333333-33335555----|| /\|_
A||----55555555-3577777-11111111-11113333----|| 
D||-------------3577777----------------------||

Bridge:
e||-----------------------------------------------||
B||-----------------------------------------------||    _
G||----7~----~-----5~-----------7~----------5~----|| \/ _|
D||----7~----3~----5~----2-3----7~----3~----5~----|| /\|_
A||----5~----3~----3~----2-3----5~----3~----3~----||
D||----------3~----------2-3----------3~----------||

Outro:
e||-------------------------------------------||
B||-------------------------------------------||
G||-------------------------------77553322----||--
D||----88888888-88888888-88888888-77553322----||  |
A||----88888888-88888888-88888888-55331100----||  |    _
D||----88888888-88888888-88888888-------------||  | \/|_  (palm mute on
                                                  | /\ _|  1st-2nd time)
e||-------------------------------------------||  |
B||-------------------------------------------||  |
G||-------------------------------------77----||  |
D||----00000000-00000000-00000000-55778877----||-- 
A||----00000000-00000000-00000000-55778855----||           
D||----00000000-00000000-00000000-557788------|| 

e||------------------------------------------||
B||------------------------------------------||
G||-------------------------------7-5-3-2----||
D||----8~----------------88~------7-5-3-2----||
A||----8~----------------88~------5-3-1-0----||
D||----8~----------------88~-----------------||

e||------------------------------------------||
B||------------------------------------------||
G||-------------------------------------7----||
D||----0~----------------00~------5-7-8-7----||
A||----0~----------------00~------5-7-8-5----||           
D||----0~----------------00~------5-7-8------|| 

e||----------------------------------------------||
B||----------------------------------------------||
G||-------------------------------7-5-3-2--------||
D||----8~----------------88~------7-5-3-2--0~----||
A||----8~----------------88~------5-3-1-0--0~----||
D||----8~----------------88~---------------0~----||

- END --
Tap to rate this tab
# A B C D E F G H I J K L M N O P Q R S T U V W X Y Z