Song name
# A B C D E F G H I J K L M N O P Q R S T U V W X Y Z

Alesana - Welcome To The Vanity Fair tab

Please rate and/or leave your feedback.

Song: Welcome To The Vanity Faire
Band: Alesana
Album: A Place Where The Sun Is Silent
Tabbed by: Mr. Picky
Tuning: Drop D

Intro:
e||----------------------------------------------------||
B||----------------------------------------------------||
G||-------------77777777-------------------------------||
D||----xxx-xxxx-77777777-44449997-55555555-777-7777----||
A||----xxx-xxxx-55555555-44449997-55555555-777-7777----||
D||----xxx-xxxx----------44449997-55555555-777-7777----||

e||-------------------------------------------||
B||-------------------------------------------||
G||----77777777-------------------------------||
D||----77777777-44449997-55555555-77777777----||
A||----55555555-44449997-55555555-77777777----||
D||-------------44449997-55555555-77777777----||

e||-------------------------------------------||
B||-------------------------------------------||
G||----33333333-55555555-33333333-55555555----||
D||----33333333-55555555-33333333-55555555----||
A||----11111111-33333333-11111111-33333333----||
D||-------------------------------------------||

Verse:
e||---------------------------------------------------------------||
B||---------------------------------------------------------------||     _
G||----77777777-77-77-77-77-77-----------------333-333-555-555----|| \/  _|
D||----77777777-77-77-77-77-77-333-333-333-333-333-333-555-555----|| /\ |_
A||----55555555-55-55-55-55-55-333-333-333-333-111-111-333-333----||
D||----------------------------333-333-333-333--------------------||
       ........ .. .. .. .. .. ..  ..  ..  ..  ..  ..  ..  ..

Prechorus:
e||-------------------------------------------------||
B||-------------------------------------------------||
G||-------------------------------------------------||
D||----0---78---810---108750---78---810---108000----||
A||----0---78---810---108750---78---810---108000----||
D||----0---78---810---108750---78---810---108000----||
                                             ..
e||----------------------------------------------||
B||----------------------------------------------||
G||----------------------------------------------||
D||----78---810---108750---78---8101010108888----||
A||----78---810---108750---78---8101010108888----||
D||----78---810---108750---78---8101010108888----||

Chorus:
e||----------------------------------------------------||
B||----------------------------------------------------||     _
G||----7777-----33333333-7777-----33333333-55555555----|| \/  _|
D||----77773333-33333333-77773333-33333333-55555555----|| /\ |_
A||----55553333-11111111-55553333-11111111-33333333----||
D||--------3333--------------3333----------------------||

Verse:
e||------------------------------------------------------------||
B||------------------------------------------------------------||    _
G||----3333-555-5------777-7--3333-555-5--------7s5s7----------|| \/ _|
D||----3333-555-5-7777-777-7--3333-555-5-777777-7s5s7-7s5s7----|| /\|_
A||----1111-333-3-7777-555-5--1111-333-3-777777-5s3s5-7s5s7----||
D||---------------7777-------------------777777-------7s5s7----||
                                         ......
Prechorus:
e||-------------------------------------------------||
B||-------------------------------------------------||
G||-------------------------------------------------||
D||----0---78---810---108750---78---810---108000----||
A||----0---78---810---108750---78---810---108000----||
D||----0---78---810---108750---78---810---108000----||
                                             ..
e||----------------------------------------------||
B||----------------------------------------------||
G||----------------------------------------------||
D||----78---810---108750---78---8101010108888----||
A||----78---810---108750---78---8101010108888----||
D||----78---810---108750---78---8101010108888----||

Chorus:
e||----------------------------------------------------||
B||----------------------------------------------------||     _
G||----7777-----33333333-7777-----33333333-55555555----|| \/  _|
D||----77773333-33333333-77773333-33333333-55555555----|| /\ |_
A||----55553333-11111111-55553333-11111111-33333333----||
D||--------3333--------------3333----------------------||

Bridge:
e||---------------------------------------------||
B||---------------------------------------------||
G||----3-33-3-3-(22-0-2)-5-55-5-5-(53-2-0h2)----||
D||----3-33-3-3----------5-55-5-5---------------||
A||----1-11-1-1----------3-33-3-3---------------||
D||---------------------------------------------||

e||---------------------------------------||
B||---------------------------------------||
G||----------(2222222)-------(0000225)----||
D||----0-00~------------0-00~-------------||
A||----0-00~------------0-00~-------------||
D||----0-00~------------0-00~-------------||

e||---------------------------------------------||
B||---------------------------------------------||
G||----3-33-3-3----------5-55-5-5---------------||
D||----3-33-3-3----------5-55-5-5---------------||
A||----1-11-1-1----------3-33-3-3---------------||
D||---------------------------------------------||

e||--------------------------------------||
B||--------------------------------------||
G||----------(2222222)-------(000022)----||
D||----0-00~------------0-00~------------||
A||----0-00~------------0-00~------------||
D||----0-00~------------0-00~------------||

Prechorus:
e||-------------------------------------------||
B||-------------------------------------------||     _
G||----33333333-55555555-33333333-55555555----|| \/  _|
D||----33333333-55555555-33333333-55555555----|| /\ |_
A||----11111111-33333333-11111111-33333333----||
D||-------------------------------------------||

Chorus:
e||----------------------------------------------------||
B||----------------------------------------------------||     _
G||----7777-----33333333-7777-----33333333-55555555----|| \/  _|
D||----77773333-33333333-77773333-33333333-55555555----|| /\ |_
A||----55553333-11111111-55553333-11111111-33333333----||
D||--------3333--------------3333----------------------||

e||----------------------------||
B||----------------------------||
G||----33333333-55555555-3~----||
D||----33333333-55555555-3~----||
A||----11111111-33333333-1~----||
D||----------------------------||

e||--------------------------------------------------------------------||
B||--------------------------------------------------------------------||
G||--------------------------------------------------------------------||
D||----22-2-2-2-2-2-2-2s4-4-4-4-4-4-4s5-5-5-5-5-5-5-5s7-7-7-7-7-7-7----||
A||----22-2-2-2-2-2-2-2s4-4-4-4-4-4-4s5-5-5-5-5-5-5-5s7-7-7-7-7-7-7----||
D||----22-2-2-2-2-2-2-2s4-4-4-4-4-4-4s5-5-5-5-5-5-5-5s7-7-7-7-7-7-7----||

e||--------------------------------------------------------------------||
B||--------------------------------------------------------------------||
G||--------------------------------------------------------------------||
D||----22-2-2-2-2-2-2-2s4-4-4-4-4-4-4s5-5-5-5-5-5-5-5s7-7-7-7-7-7-7----||
A||----22-2-2-2-2-2-2-2s4-4-4-4-4-4-4s5-5-5-5-5-5-5-5s7-7-7-7-7-7-7----||
D||----22-2-2-2-2-2-2-2s4-4-4-4-4-4-4s5-5-5-5-5-5-5-5s7-7-7-7-7-7-7----||

e||---------------------------||
B||---------------------------||
G||---------------------------|| \/ |_|
D||----22------22-22-22-22----|| /\   |
A||----22------22-22-22-22----||
D||----22-12s0-22-22-22-22----||
                     .. ..
e||---------||
B||---------||
G||---------||
D||----2----||
A||----2----||
D||----2----||
Tap to rate this tab
# A B C D E F G H I J K L M N O P Q R S T U V W X Y Z