Song name
# A B C D E F G H I J K L M N O P Q R S T U V W X Y Z

Alesana - And Now For The Final Illusion tab

Please rate and/or leave your feedback.

Song: And Now For The Final Illusion
Band: Alesana
Album: A Place Where The Sun Is Silent
Tabbed by: Mr. Picky
Tuning: Drop D

Intro:
(This actually seems to be the ending of The Best Laid Plans Of Mice And Marionettes)
e||----------------------||
B||----------------------||
G||----66-55-44-33-2~----||
D||----66-55-44-33-2~----||
A||----44-33-22-11-0~----||
D||----------------------||

Story:
e||----------------||
B||----------------||     _ 
G||----------------|| \/  _|
D||----3~----7~----|| /\  _|
A||----3~----7~----||
D||----3~----7~----||

e||----------||
B||----------||
G||----------||
D||----3~----||
A||----3~----||
D||----3~----||

Verse:
e||-------------------------------------------||
B||-------------------------------------------||
G||-------------------------------------------||
D||----77777777-77777777-33333333-55555555----||--
A||----77777777-77777777-33333333-55555555----||  |
D||----77777777-77777777-33333333-55555555----||  |     _
       ........ ........ ........ ........        | \/  _|
e||-------------------------------------------||  | /\ |_
B||-------------------------------------------||  |
G||-------------------------------------------||--
D||----77777777-77777777-22222222-33333333----||
A||----77777777-77777777-22222222-33333333----||
D||----77777777-77777777-22222222-33333333----||
       ........ ........ ........ ........

Chorus:
e||-------------------------------------------||
B||-------------------------------------------||
G||-------------------------------------------||
D||----77777777-77777777-33333333-55555555----||--
A||----77777777-77777777-33333333-55555555----||  |
D||----77777777-77777777-33333333-55555555----||  |
                                                  | \/ |_|
e||-------------------------------------------||  | /\   |
B||-------------------------------------------||  |
G||-------------------------------------------||--
D||----77777777-77777777-22222222-33333333----||
A||----77777777-77777777-22222222-33333333----||
D||----77777777-77777777-22222222-33333333----||

e||-------------------------------------------------------||
B||-------------------------------------------------------||
G||-------------------------------------------------------||
D||----7~--------3~----5~-------7~--------2~----3~--------||
A||----7~--------3~----5~-------7~--------2~----3~--------||
D||----7~--------3~----5~-------7~--------2~----3~--------||

e||-------------------------------------------------------||
B||-------------------------------------------------------||
G||-------------------------------------------------------||
D||----777~------3~----5~-------777~------2~----3~--------||
A||----777~------3~----5~-------777~------2~----3~--------||
D||----777~------3~----5~-------777~------2~----3~--------||

e||----------||
B||----------||
G||----------||
D||----7~----||
A||----7~----||
D||----7~----||

Outro Story:
e||------------------------------------------||
B||----------5---------5--------5~-----5~----||     _
G||---------4-6~------4-6~-----6------6------|| \/  _|
D||------6---------6-------------------------|| /\ |_
A||----4---------4-----------0------0--------||
D||------------------------------------------||

e||--------------------9~----||
B||----------------5~--------||
G||------------6~------------||
D||--------6~----------------||
A||----4~--------------------||
D||--------------------------||

-- END --
Tap to rate this tab
# A B C D E F G H I J K L M N O P Q R S T U V W X Y Z