Song name
# A B C D E F G H I J K L M N O P Q R S T U V W X Y Z

Alesana - The Wanderer tab

Please rate and/or leave your feedback.

Song: The Wanderer
Band: Alesana
Album: A Place Where The Sun Is Silent
Tabbed by: Mr. Picky
Tuning: Drop D

This may not be 100% accurate since the song is in piano.
But this should help you with playing it on guitar.
You can actually just strum the chords if you want to make
an acoustic version of it. Have fun!

Verse:
e||----------------------------------------------------------||
B||-----------0-----0-----0-----0----------------------------||     _
G||---------0-----0-----0-----0-------0-----0----------------|| \/  _|
D||-------2-----2-----2-----2-------2-----2-----1-4---1-4----|| /\ |_ 
A||-------------------------------3-----3-----2-----2--------|| (do not play
D||----(2)---------------------------------------------------||(2) on 2nd loop)

Chorus:
e||---------------------------||
B||---------------------------||     _
G||----6666------4444-5555----|| \/  _|
D||----6666-7777-4444-6666----|| /\ |_
A||----4444-7777-2222-3333----||
D||---------7777--------------||

Verse:
e||-------------------------------------------------------||
B||--------0-----0-----0-----0----------------------------||     _
G||------0-----0-----0-----0-------0-----0----------------|| \/  _|
D||----2-----2-----2-----2-------2-----2-----1-4---1-4----|| /\ |_ 
A||----------------------------3-----3-----2-----2--------||
D||-------------------------------------------------------||

Chorus:
e||---------------------------||
B||---------------------------||
G||----6666------4444-5555----|| \/ |_|
D||----6666-7777-4444-6666----|| /\   |
A||----4444-7777-2222-3333----||
D||---------7777--------------||

Ends With:
e||----------||
B||----------||
G||----6~----||
D||----6~----||
A||----4~----||
D||----------||

-- END --
Tap to rate this tab
# A B C D E F G H I J K L M N O P Q R S T U V W X Y Z