Song name
# A B C D E F G H I J K L M N O P Q R S T U V W X Y Z

Alesana - Congratulations I Hate You tab

Band: Alesana
Song: Congratulations, I Hate You.
Album: Try This With Your Eyes Closed.

********************************************************************

Intro

|----------------------------------------------|
|------------------------6~----------5~--------|
|----------------------------------------------|
|--8~------7~--------8~----------7~------------|
|--8~------7~--------8~----------7~------------|
|--6~------5~--------6~----------5~------------|

Riff 1
"No one ever said the life was fair..."
|----||-------------------||
|----||-6---5h6p5----8----||
|--5-||----5-------5------|| X7
|----||-------------------||
|----||-------------------||
|----||-------------------||

"I hate your pitty!"

Riff 2
"Taste your vanity..."
||-------------------||-------------------||
||-------------------||-------------------||
||-------------------||-------------------||
||-xx-88-xx-88-xx-8--||-xx-77-xx-77-xx-7--||
||-xx-88-xx-88-xx-8--||-xx-77-xx-77-xx-7--||
||-xx-66-xx-66-xx-6--||-xx-55-xx-55-xx-5--||

Riff 3 (Same chord in different ryhtm)

Riff 4
"You took the all!"
|-------------------------------------------------|
|--6--5---8---6--5---8---6--5---8---6--5---8------|
|-------------------------------------------------|
|-------------------------------------------------|
|-------------------------------------------------|
|-------------------------------------------------|

Riff 3a (Clean)
"As you build your dreams..."
|--------------------------------------------------------------------|
|--------------------------------------------------------------------|
|--------------------------------------------------------------------|
|-8-88-88--8888-8-8-88-88--8888-8-8-88-88--8888-8-8-88-88--8888-8----|
|-8-88-88--8888-8-8-88-88--8888-8-8-88-88--8888-8-8-88-88--8888-8----|
|-6-66-66--6666-6-6-66-66--6666-6-5-55-55--5555-5-5-55-55--5555-5----|

|----------------------------------|
|----------------------------------|
|----------------------------------|
|-7-77-77--7777-7-7-77-77--7777-7--|
|-7-77-77--7777-7-7-77-77--7777-7--|
|-5-55-55--5555-5-5-55-55--5555-5--|

Riff 3b
|---------------------------------------------|
|-6-5-8-6-5-8-6-5-8-6-5-8-----6-8-6---6-8-----|
|---------------------------5-------5---------|
|---------------------------------------------|
|---------------------------------------------|
|---------------------------------------------|
                          PM..............

Corus
"Beg me..."
||----------------------------------------------8------||
||-6-8-6-5-5-6--6-8-6-5-5-6--6-8-6-5-5-6--6-8-6---8-6--||
||-----------------------------------------------------||
||-----------------------------------------------------||
||-----------------------------------------------------||
||-----------------------------------------------------||

                     "Suffer alone, in emptiness!"
|------------------------------------|
|----6-8-6---6-8---------------------|
|--5-------5-------------------------|
|------------------5~---~------------|
|------------------5~---~------------|
|------------------5~---~------------|
 PM.............

Riff 4
      "I lust to..."
|--------------------------------------------------------|
|--------------------------------------------------------|
|--------------------------------------------------------|
|-8-xx-8--------7-xx-7--------5-xx-5-------6-xx-6--------|
|-8-xx-8--------7-xx-7--------5-xx-5-------6-xx-6--------|
|-6-xx-6--------5-xx-5--------5-xx-5-------6-xx-6--------|

Riff 4a                 X7
||-------13-0-12-0-10-0-||-------------------|
||-10-11----------------||---6-8-6---6-8-----|
||----------------------||-5-------5---------|
||----------------------||-------------------|
||----------------------||-------------------|
||----------------------||-------------------|
                         PM.............

Repeat Corus

Riff 5
"Send Stares!"         X7
||--------13-0-12-0-10-0-||
||-10-11-----------------||
||-----------------------||
||-----------------------||
||-----------------------||
||-----------------------||

Riff 5a
|-----------------------------------------------|
|----6-8-6---6-8---------bass solo--------------|
|--5-------5------------------------------------|
|-----------------7~--~--------------7-~--~-----|
|-----------------7~--~--------------7-~--~-----|
|-----------------5~--~--------------5-~--~-----|

Riff 6                                 X4
||---------------------------------------||-----------|
||---------------------------------------||-----------|
||-9-7--7-6------------------------------||-9-7--7-6--|
||-x-x--x-x---55-5555-55-5555-55-5555-5--||-x-x--x-x--|
||-7-5--5-4---55-5555-55-5555-55-5555-5--||-7-5--5-4--|
||------------55-5555-55-5555-55-5555-5--||-----------|
            PM.........................

Riff 3a
Riff 3b
Corus
Riff 5 (X8)

|-----------------|
|-----------------|
|-----------------|
|-8~---~----------|
|-8~---~----------|
|-6~---~----------|

~ = Let ring the note
x = Mute note
PM= Palm Mute
||= Repeat

By @_Cryz_@
Tap to rate this tab
 
# A B C D E F G H I J K L M N O P Q R S T U V W X Y Z