Song name
# A B C D E F G H I J K L M N O P Q R S T U V W X Y Z

Alesana - Lullaby Of The Crucified tab

Solo: Only guitar 1 and a few of guitar 2

e||---------------------------------------------------||
B||---------------------------------------------------||
G||-------910---------/99-/1010-/1212109~-10~--------||
D||-10-12-----10h12-----------------------------------||
A||---------------------------------------------------||
D||---------------------------------------------------||

e||-----------------------------------------------||
B||-----------------------------------------------||
G||--(10)-(9)-------------------------------------||
D||----------(12)-(10)----------------------------||
A||-----------------------------------------------||
D||-----------------------------------------------||

e||-------------------------------------------------------------||
B||---18p15-------15-------1517---------------------------------||
G||---------1714-----1714-------1714~---------------------------||
D||-------------------------------------------------------------||
A||-------------------------------------------------------------||
D||-------------------------------------------------------------||

e||----1517181715------------20b----------------------------||
B||--15-----------1818b-201820----201820-20b(x3)------------||
G||---------------------------------------------------------||
D||---------------------------------------------------------||
A||---------------------------------------------------------||
D||---------------------------------------------------------||

(Try to figure out this part, its pretty fast)
e||--1817-----------------------------------------------||
B||------18201817181715---15--15------------------------||
G||--------------------17b17b17b~---------------------||
D||-----------------------------------------------------||
A||-----------------------------------------------------||
D||-----------------------------------------------------||

(Obviously,Im not sure about this part but the sound of 2guitars at one time worked for 
me with a Harmonic Effect wich was tunned at E
And of course this is really fast pitch
e||--------------------------------------------------||
B||------------------13~-----------------13~-15~-----||
G||------121412--------------121412-------------14~--||
D||--1012------151412----1012------151412------------||
A||--------------------------------------------------||
D||--------------------------------------------------||
(Now this is all distortion, no harmonic, try to figure out listening the solo to avoid 
doing it to fast)
e||--------------------||
B||--------------------||
G||--------------------||(Second guitar, its almost not noticeable)
D||--------------------||
A||-(12)-(10)-(8)-(7~)-||
D||--------------------||

Then you can choose with fits you the best, V1 or V2, whichever you think sounds better, 
of course with the harmonic effect in the same tunning E

Version 1 of 3:33
e||----------------------------------------------------------------------------||
B||----------------------------------------13~---------------------------------||
G||-------------------------------------------------------14-------------------||
D||-12-151514-1212-151412~-151514-1214-1514-------14151412--15-----------------||
A||-------------------------------------------1215------------12~---10-12------||
D||----------------------------------------- (This part is whithout harmonic)--||



Version 2 of 3:33
e||----------------------------------------------------------------------------||
B||----------------------------------13~---------------------------------------||
G||-14-1413----14-----14-1413----1314----------------14------------------------||
D||--------1215--1514--------1215------------14151412--15----------------------||
A||--------------------------------------1215------------12~---10-12-----------||
D||--------------------------------------(Without Harmonic)------------||

This is 3:42, of course with harmonic Effect

e||--17-----------17---------------17----------17-----------------||
B||----181718-15~---181718-20-18~----181718-15~--181718-20--------||
G||---------------------------------------------------------------||
D||---------------------------------------------------------------||
A||---------------------------------------------------------------||
D||---------------------------------------------------------------||

3:52
e||-18-17~-171817------17------171817------------------------------------||
B||--------------20~-202018~--------201820-171817-151715-1213-15~-15\---||
G||----------------------------------------------------------------------||
D||----------------------------------------------------------------------||
A||----------------------------------------------------------------------||
D||----------------------------------------------------------------------||

(Theres a second guitar on 3:52) Palm mute

e||----------------------------------------------------------------||
B||----------------------------------------------------------------||
G||----------------------------------------------------------------||
D||-1212151514141212-121215151414-15h17p15-------------------------||
A||----------------------------------------------------------------||
D||----------------------------------------------------------------||

e||---------------------------------------------------------||
B||---------------------------------------------------------||
G||-------------------------------12h14p12------------------||
D||-1212151514141212-121215151414---------------------------||
A||---------------------------------------------------------||
D||---------------------------------------------------------||
Tap to rate this tab
# A B C D E F G H I J K L M N O P Q R S T U V W X Y Z