Song name
# A B C D E F G H I J K L M N O P Q R S T U V W X Y Z

Alesana - Beyond The Sacred Glass tab

Artist: Alesana
Album: A Place Where The Sun Is Silent
Song: Beyond The Sacred Glass
Tuning: Drop D

Note: This is the lead guitar part only, I may post the other parts later but I 
just wanted to get this up.

h: Hammer-on
p: Pull-off
b: Bend
/: Slide

(Intro)
e|--------------------------------------------------|
B|--------------------------------------------------|
G|-------2-2----------------------------------------| 
D|-------------------------------3-3-2--------------| x8
A|--3h5------5(0)-----------3h5-------(0)-----------|
D|--------------------------------------------------|

(2nd Part of Intro/Chorus)
e|--------------------------------------------------|
B|--------------------------------------------------|
G|--10101010--101010109999--99997777--777777--------| 
D|--------------------------------------------(5)---| 
A|--------------------------------------------(5)---|
D|--------------------------------------------(5)---|

e|--------------------------------------------------|
B|--------------------------------------------------|
G|--10101010--101010109999--99997777--777777--(5)---| 
D|--------------------------------------------(5)---| 
A|--------------------------------------------(3)---|
D|--------------------------------------------------|

(Verse-Palm Muted)
e|--------------------------------------------------|
B|--------------------------------------------------|
G|-----------------5--------------7-----------------| 
D|--7-------5------5-x8---3-------7-x8---5----------| x2
A|--7-x16---5-x8---3------3-x16---5------5-x8-------|
D|--7-------5-------------3--------------5----------|
  
e|--------------------|
B|--------------------|
G|--------------------| 
D|--5h7-5h7-----------| x3
A|----------77777777--|
D|--------------------|

e|-----------------------|
B|-----------------------|
G|-----------------------|
D|--5h7-5h7-5h7-5h7-5h7--|
A|-----------------------|
D|-----------------------|



(Pre-Chorus)
e|------------------------------------------------------|
B|------------------------------------------------------|
G|--0-10-9-7-4/5---0-10-9-7-5p4p0---0-10-9-7-5/4--b7--5-| 
D|------------------------------------------------------| 
A|------------------------------------------------------|
D|------------------------------------------------------|

e|----------------------------------------------------------|
B|----------------------------------------------------------|
G|--0-10-9-7-4/5---0-10-9-7-5p4p0---0-10-9-7-5/4--xxxx------| 
D|------------------------------------------------xxxx-2-5--| 
A|------------------------------------------------xxxx-2-5--|
D|------------------------------------------------xxxx-2-5--|


(Chorus)
e|--------------------------------------------------|
B|--------------------------------------------------|
G|--10101010--101010109999--99997777--777777--------| 
D|--------------------------------------------(5)---| 
A|--------------------------------------------(5)---|
D|--------------------------------------------(5)---|

e|--------------------------------------------------|
B|--------------------------------------------------|
G|--10101010--101010109999--99997777--777777--(5)---| 
D|--------------------------------------------(5)---| 
A|--------------------------------------------(3)---|
D|--------------------------------------------------|

(Verse)

(Pre-Chorus)

(Chorus)

(Solo)
e|------------------------------------|
B|----15h17p1515----------------------|
G|--17----------17--19-17--19-17-b19--| 
D|------------------------------------| 
A|------------------------------------|
D|------------------------------------|

e|--------------------------------------------------|
B|--------------------------------------------------|
G|--24-21----21-19----19-17----17-------------------|
D|--------------------------21----b21/b19-----------|
A|--------------------------------------------------|
D|--------------------------------------------------|

e|----------------------------------------|
B|----------------------------------------|
G|----------12b14b12-10-9--7(7)-9-10-9----|
D|--10(10)--------------------------------|
A|----------------------------------------|
D|----------------------------------------|


e|-----------------------------|
B|-----------------------------|
G|------b7--5-5h7-p5*5-h7p5----| 
D|---5h7-----------------------| 
A|--5----------------------7---|
D|-----------------------------|

e|--------------------------------------------------|
B|--10h12p10-8h10p8-6h8p6-5hp6-------10-8-----------|
G|-----------------------------/9-9-7-----9-7-------|
D|--------------------------------------------9-----|
A|--------------------------------------------------|
D|--------------------------------------------------|

e|--------------------------------------------------|
B|--10h12p10----------------------------------------|
G|----------b12--14-12-10-12------------------------|
D|--------------------------b12-10------------------|
A|--------------------------------12----------------|
D|--------------------------------------------------|

e|----------------------------------------------------------|
B|----17-17-1715----15h17p15---15h17p15---------------------|
G|--19----------------------17---------16(16)-17(17)-19(19)-|
D|----------------------------------------------------------|
A|----------------------------------------------------------|
D|----------------------------------------------------------|

e|-----------------------|
B|---17--17--17--17--17--|
G|--b19-b19-b19-b19-b19--|
D|-----------------------|
A|-----------------------|
D|-----------------------|

Then the chorus two more times and on the second one you can barely hear something like this:

e|--------------------------|
B|--------------------------|
G|-------2---------------2--|
D|---------------3----------|
A|--3h5p3---3h5p3---3h5p3---|
D|--------------------------| 
Tap to rate this tab
 
# A B C D E F G H I J K L M N O P Q R S T U V W X Y Z