Song name
# A B C D E F G H I J K L M N O P Q R S T U V W X Y Z

Alesana - And They Call This Tragedy tab

Alesana
And They Call This Tragedy Tab

Tabbed by: Menidi
Email: guih_vengeance6661@hotmail.com

Tuning: Drop D

Guitar 1 - Rhythm
Guitar 2 - Lead

Intro
guitar 1
e|--------------------------------|---------------------------------|
B|--------------------------------|---------12----------------------|
G|--------------------------------|------------11-------------------|
D|--11~------------9~-------------|--11~----------9---------9~------|
A|--9~-------------7~-------------|--9~---------------------7~------|
D|--9~-------------7~-------------|--9~---------------------7~------|

guitar 2
e|-------------10----9----------------10----9------|
B|--12~--------------------10----------------------|
G|-------------------------------------------------|x2
D|-------------------------------------------------|
A|-------------------------------------------------|
D|-------------------------------------------------|

Intro part 2
guitar 1
e|----------------------------------------|-------------------|
B|----------------------------------------|-------------------|
G|----------------------------------------|-------------------|
D|-5---------7---------4---------5--------|-5--------7--------|
A|-5-(x16)---7-(x16)---4-(x16)---5-(x16)--|-5-(x16)--7-(x16)--|
D|-5---------7---------4---------5--------|-5--------7--------|
pm................................

guitar 2
e|-----------------------------------------9-------------------------|
B|----12------12------12------12------12-----12--12----12------12----|
G|--11--11--11--11--11--11--11--11--11--11-----11----11--11--11--11--|
D|-9-------9-------9-------9-------9----------------9-------9--------|
A|-------------------------------------------------------------------|
D|-------------------------------------------------------------------|

e|--------------------|
B|-12-0-10-0-12-0-14--|x4
G|--------------------|
D|--------------------|
A|--------------------|
D|--------------------|

Verse 1
guitar 1
e|---------------------------------------------------------------|
B|---------------------------------------------------------------|
G|-----6------6------6----------------6------6------6------------|
D|-9-9----9-9----9-9----9-9--7-7--5-5----5-5----5-5----5-5--7-7--|
A|-9-9----9-9----9-9----9-9--7-7--5-5----5-5----5-5----5-5--7-7--|
D|-9-9----9-9----9-9----9-9--7-7--5-5----5-5----5-5----5-5--7-7--|

guitar 2
e|---------------------------------------------------------------|
B|---------------------------------------------------------------|
G|-----9------9------9----------------9------9------9------------|
D|-9-9----9-9----9-9----9-9--7-7--5-5----5-5----5-5----5-5--7-7--|
A|-9-9----9-9----9-9----9-9--7-7--5-5----5-5----5-5----5-5--7-7--|
D|-9-9----9-9----9-9----9-9--7-7--5-5----5-5----5-5----5-5--7-7--|

Verse 2
guitar 1
e|-------------------------------------------------------------------|
B|-------------------------------------------------------------------|
G|-------------------------------------------------------------------|
D|-5---------7---------4---------9--------7--------5---------7~------|
A|-5-(x16)---7-(x16)---4-(x16)---9-(x8)---7-(x8)---5-(x16)---7~------|
D|-5---------7---------4---------9--------7--------5---------7~------|

guitar 2
e|---------------------------|
B|----12------------12~------|
G|--11--11--(x10)---11~------|
D|-9----------------9~-------|
A|---------------------------|
D|---------------------------|

Chorus x2
guitar 1 (just the chords)
e|-------------------------|
B|-------------------------|
G|-------------------------|
D|-9-----5-----7-----4-----|
A|-9-----5-----7-----4-----|
D|-9-----5-----7-----4-----|

guitar 2
e|--------------------------------------------------------|-----------------|
B|--------------------------------------------------------|-7--7--5--5---10-|
G|-4h6h7p6-4h6h7p6-6---6---7------4h6h7p6-6---6---7--(x3)-|---7--7--7--7-7--|
D|--------------------------------------------------------|-----------------|
A|--------------------------------------------------------|-----------------|
D|--------------------------------------------------------|-----------------|

Post Chorus
guitar 1
e|----------------------------------------|
B|----------------------------------------|
G|----------------------------------------|
D|-9~----------9~----------5~-------------|
A|-9~----------9~----------5~-------------|
D|-9~----------9~----------5~-------------|

guitar 2
e|-5---5-----------------------------------------------------------------|
B|---------8---8---7---7---7---7---(x2)---7-0-8-0-10-0-8~---0-7-0-8-0-5--|
G|---7---7---7---7---7---7---7---7---------------------------------------|
D|-----------------------------------------------------------------------|
A|-----------------------------------------------------------------------|
D|-----------------------------------------------------------------------|

Verse
guitar 1
e|-----------------------------------------------------------|
B|-----------------------------------------------------------|
G|-----------------------------------------------------------|
D|------------------9------9-9-----9-9-9----5~---------------|x4
A|-9999999999999999-9------9-9-----9-9-9----5~---------------|
D|-9999999999999999-9------9-9-----9-9-9----5~---------------|
pm.....................................

guitar 2
e|----------------------------------------------------------------7-7-7--|
B|-7-0-8-0-10-0-8----8-7----10-8-7----7-0-8-0-10-0-8~---0-7-0-8-0-5-5-5--|
G|-----------------------------------------------------------------------|x3
D|-----------------------------------------------------------------------|
A|-----------------------------------------------------------------------|
D|-----------------------------------------------------------------------|

e|--------------------------------------------------------------------------|
B|-7-0-8-0-10-0-8---8-7---10-8-7--------------------------------------------|
G|---------------------------------4-6-7-4-6-7-4-6-7-4-6-7-4-6-7-4-6-7-4-7~-|
D|--------------------------------------------------------------------------|
A|--------------------------------------------------------------------------|
D|--------------------------------------------------------------------------|

Chorus x2
guitar 1 (just the chords)
e|-------------------------|
B|-------------------------|
G|-------------------------|
D|-9-----5-----7-----4-----|
A|-9-----5-----7-----4-----|
D|-9-----5-----7-----4-----|

guitar 2
e|--------------------------------------------------------|-----------------|
B|--------------------------------------------------------|-7--7--5--5---10-|
G|-4h6h7p6-4h6h7p6-6---6---7------4h6h7p6-6---6---7--(x3)-|---7--7--7--7-7--|
D|--------------------------------------------------------|-----------------|
A|--------------------------------------------------------|-----------------|
D|--------------------------------------------------------|-----------------|

Post Chorus 2
guitar 1
e|-----------------------------------------------|---------------------|
B|-----------------------------------------------|---------------------|
G|-----------------------------------------------|---------------------|x2
D|-9~----------9~----------5~----------5~--------|-9---------5---------|
A|-9~----------9~----------5~----------5~--------|-9-(x32)---5-(x32)---|
D|-9~----------9~----------5~----------5~--------|-9---------5---------|
pm                                                 ...........

guitar 2
e|-5---5----------------------------|
B|---------8---8---7---7---7---7----|
G|---7---7---7---7---7---7---7---7--|x12
D|----------------------------------|
A|----------------------------------|
D|----------------------------------|

Breakdown
guitar 1
e|-------------------------------------|
B|-------------------------------------|
G|-------------------------------------|
D|--0~---------0-----0----0--0--0--0---|
A|--0~---------0-----0----0--0--0--0---|
D|--0~---------0-----0----0--0--0--0---|

guitar 2
e|-------------------------------------|
B|-11~-------11----11----11-11-11-11---|
G|-14~-------14----14----14-14-14-14---|
D|-------------------------------------|
A|-------------------------------------|
D|-------------------------------------|

Breakdown part 2 
guitar 1 x2
e|------------------------------------------------|
B|------------------------------------------------|
G|------------------------------------------------|
D|----------------------------------------5---7---|
A|-0-0-0--------0-0-0--------0-0-0--------5---7---|
D|-0-0-0--------0-0-0--------0-0-0--------5---7---|
pm...............................

e|-----------------------------------------------------------|
B|-----------------------------------------------------------|
G|-----------------------------------------------------------|
D|----------------------------------------5---7---12---11----|
A|-0-0-0--------0-0-0--------0-0-0--------5---7---12---11----|
D|-0-0-0--------0-0-0--------0-0-0--------5---7---12---11----|
pm...............................

guitar 2
e|------------------------------------------------|
B|-------11-----------11-----------11-------------|
G|-------14-----------14-----------14-------------|
D|----------------------------------------5---7---|
A|-0-0-0--------0-0-0--------0-0-0--------5---7---|
D|-0-0-0--------0-0-0--------0-0-0--------5---7---|
pm......        .....        .....

e|-----------------------------------------------------------|
B|-------11-----------11-----------11------------------------|
G|-------14-----------14-----------14------------------------|
D|----------------------------------------5---7---12---11----|
A|-0-0-0--------0-0-0--------0-0-0--------5---7---12---11----|
D|-0-0-0--------0-0-0--------0-0-0--------5---7---12---11----|
pm......        .....        .....

Pre-Chorus
guitar 1
|-------------------------------------------------|
|-------------------------------------------------|
|-------------------------------------------------|
|-----------------------------------7~------------|
|--7-7-7-7-7-7-7-7-9-9-9-9-9-9-9-9--7~------------|
|--7-7-7-7-7-7-7-7-9-9-9-9-9-9-9-9--7~------------|
pm................................

guitar 2
|-------------------------------------------------|
|--8-8-8-6-6-6-5-5-8-8-8-6-6-6-5h6p5~-------------|
|-------------------------------------------------|
|-------------------------------------------------|
|-------------------------------------------------|
|-------------------------------------------------|
pm............................

Chorus x2
guitar 1 (just the chords)
e|-------------------------|
B|-------------------------|
G|-------------------------|
D|-9-----5-----7-----4-----|
A|-9-----5-----7-----4-----|
D|-9-----5-----7-----4-----|

guitar 2
e|--------------------------------------------------------|-----------------|
B|--------------------------------------------------------|-7--7--5--5---10-|
G|-4h6h7p6-4h6h7p6-6---6---7------4h6h7p6-6---6---7--(x3)-|---7--7--7--7-7--|
D|--------------------------------------------------------|-----------------|
A|--------------------------------------------------------|-----------------|
D|--------------------------------------------------------|-----------------|

END. 
Comment & Rate, Thank You.

************************************

| /   slide up
| \   slide down
| h   hammer-on
| p   pull-off
| ~   vibrato

************************************
Tap to rate this tab
# A B C D E F G H I J K L M N O P Q R S T U V W X Y Z