Song name
# A B C D E F G H I J K L M N O P Q R S T U V W X Y Z

Alesana - In Her Tomb By The Sounding Sea tab

-------------------------------------------------------------------------------
                  In Her Tomb By The Sounding Sea - Alesana
-------------------------------------------------------------------------------
Tabbed by: Menidi
Email: guih_vengeance6661@hotmail.com

Tuning: Drop D

---------------
Hey guys, im tabbing this awesome song, of this awesome band.
Well, i made a mix of all guitars, its the way i play. 
So rate and comment, and keep rocking \m/
---------------


intro/verse 
e|--------------------------------------------|
B|--------------------------------------------|
G|--------------------------------------------|
D|--------------------------------------------|
A|--7-7-7-----7-7-7-----7-3-3-------3-5-5-----|
D|--7-7-7-----7-7-7-----7-3-3-------3-5-5-----|
pm  * * *     * * *     * * *       * * *

e|-------------------------------------------------------------|
B|-------------------------------------------------------------|
G|-------------------------------------------------------------|
D|-----------7-------------------3------------5----------------|
A|--7-7-7--7-7-7--(x4)--7-3-3--3-3-3--(x2)--3-5--555555555555--|
D|--7-7-7--7-7-7--------7-3-3--3-3-3--------3-5--555555555555--|
pm  * * *  *   *        * * *  *   *        *    ************

verse 2
e|---------------------------------------------------|
B|---------------------------------------------------|
G|---------------------------------------------------|
D|-3--3--x-x-x-5--5--x-x-x-7--5--x-x-x--7--5--x-x-x--|x2
A|-3--3--x-x-x-5--5--x-x-x-7--5--x-x-x--7--5--x-x-x--|
D|-3--3--x-x-x-5--5--x-x-x-7--5--x-x-x--7--5--x-x-x--|

pre chorus (you took her once...)
e|-----------------------------|---------------------------------|
B|----13-13-13-12-12-121212-13-|--13-13-13-12-12-121212-13-------|
G|-----x--x--x-x--x--x-x-x--x--|---x--x--x-x--x--x-x-x--x---(x2)-|
D|-3--10-10-10-9--9--9-9-9--10-|--10-10-10-9--9--9-9-9--10-------|
A|-3---------------------------|---------------------------------|
D|-3---------------------------|---------------------------------|

e|------------------------|
B|-10-10-10-12-12-121212--|
G|-x--x--x--x--x--x-x-x---|
D|-7--7--7--9--9--9-9-9---|
A|------------------------|
D|------------------------|

chorus
e|----5-3--------------------5-3-------------------------|
B|--------5-3-5--6-----(x2)------5-3-5--6--8--6----------|
G|------------------5---------------------------5--9--7--|
D|-------------------------------------------------------|
A|-------------------------------------------------------|
D|-------------------------------------------------------|

e|-----------------------|
B|-----------------------|
G|--7----9----10---12----|
D|--x----x----x-----x----|
A|--5----7----8----10----|
D|-----------------------|

verse 2
e|---------------------------------------------------|
B|---------------------------------------------------|
G|---------------------------------------------------|
D|-3--3--x-x-x-5--5--x-x-x-7--5--x-x-x--7--5--x-x-x--|x2
A|-3--3--x-x-x-5--5--x-x-x-7--5--x-x-x--7--5--x-x-x--|
D|-3--3--x-x-x-5--5--x-x-x-7--5--x-x-x--7--5--x-x-x--|

pre chorus (you took her once...)
e|-----------------------------|---------------------------------|
B|----13-13-13-12-12-121212-13-|--13-13-13-12-12-121212-13-------|
G|-----x--x--x-x--x--x-x-x--x--|---x--x--x-x--x--x-x-x--x---(x2)-|
D|-3--10-10-10-9--9--9-9-9--10-|--10-10-10-9--9--9-9-9--10-------|
A|-3---------------------------|---------------------------------|
D|-3---------------------------|---------------------------------|

e|------------------------|
B|-10-10-10-12-12-121212--|
G|-x--x--x--x--x--x-x-x---|
D|-7--7--7--9--9--9-9-9---|
A|------------------------|
D|------------------------|

chorus
e|----5-3--------------------5-3-------------------------|
B|--------5-3-5--6-----(x2)------5-3-5--6--8--6----------|
G|------------------5---------------------------5--9--7--|
D|-------------------------------------------------------|
A|-------------------------------------------------------|
D|-------------------------------------------------------|

e|-----------------------|
B|-----------------------|
G|--7----9----10---12----|
D|--x----x----x-----x----|
A|--5----7----8----10----|
D|-----------------------|

post chorus
e|---------------------------------------|
B|---------------------------------------|
G|--9-9-9--------12-12-11-11-12-12-11-11-|
D|--x-x-x--(x6)---x--x-x--x---x--x-x--x--| (x7)
A|--7-7-7--------10-10-9--9--10-10-9--9--|
D|---------------------------------------|

e|------------------------------|
B|------------------------------|
G|-9-9-9---------12-------------|
D|-x-x-x--(x6)----x-------------|
A|-7-7-7---------10-------------|
D|------------------------------|

chorus
e|----5-3--------------------5-3-------------------------|
B|--------5-3-5--6-----(x2)------5-3-5--6--8--6----------|
G|------------------5---------------------------5--9--7--|
D|-------------------------------------------------------|
A|-------------------------------------------------------|
D|-------------------------------------------------------|

e|-----------------------|
B|-----------------------|
G|--7----9----10---12----|
D|--x----x----x-----x----|
A|--5----7----8----10----|
D|-----------------------|

e|-----------------------|
B|-----------------------|
G|--7----9----10~--------|
D|--x----x----x----------|
A|--5----7----8~---------|
D|-----------------------|

END : )

Comment and RATE. ;)
Tap to rate this tab
# A B C D E F G H I J K L M N O P Q R S T U V W X Y Z