Song name
# A B C D E F G H I J K L M N O P Q R S T U V W X Y Z

Alesana - Sweetheart You Are Sadly Mistaken tab

Sweetheart You Are Sadly Mistaken - Alesana
*updated with regards to Mr. Paul Anthonie Antoc*

tabbed by: Ramen Cascante
PM me for corrections
@RammCascante

(lead only)
Tuning: Drop D

Intro
                                                                          ends with:
e|----5------------------------5-----------------5----------------|       ------------|
B|-----6--5-5/6---------5/6-6---6--5-5/6-----------6-5-5-5/6-5----|       ------------|
G|------7-------5-5/7-7----------7-------5-5/7-7------------------|       ----5/7~----|
D|----------------------------------------------------------------|   2x  ------------|  
A|----------------------------------------------------------------|       ------------|
D|----------------------------------------------------------------|       ------------|

Pre-Verse

|--------------|
|--------------|
|----10~--9~---|
|----8~---7~---|   2x
|----8~---7~---|
|--------------|

Verse 1

|--------------------------------------------------------------|
|---------------------8-0--------------------------------8\----|
|----7-0-9-0-10-0-9-0-----10-0-9-0-7-0----7-0-9-10-0-9-0-------|
|--------------------------------------------------------------|
|--------------------------------------------------------------|
|--------------------------------------------------------------|

|--------------------------------------------------------------|
|---------------------8-0--------------------------------------|
|----7-0-9-0-10-0-9-0-----10-0-9-0-7-0----7-0-9-0-10-0-9-0-----|
|--------------------------------------------------------------|   5x
|--------------------------------------------------------------|
|--------------------------------------------------------------|

|----10-------|
|-------10----|
|-------------|
|-------------|   35x
|-------------|
|-------------|

|---------------------------|
|---------------------------|
|----7--7--7777777--7--7----|
|----7--7--7777777--7--7----|   2x
|----5--5--5555555--5--5----|
|---------------------------|

Chorus

|-----------------------|
|-----------------------|
|----7/99h109h10-7^~\---|
|-----------------------|   8x
|-----------------------|
|-----------------------|

|---------------------|
|---10^---------------|
|----9^----9-10-7~----|
|---------------------|
|---------------------|
|---------------------|
                                              
|--------------------------------------------+
|--------------------------------------------|
|----67-9109-67-9/12------67-9109-67-9/17----|
|--------------------------------------------|
|--------------------------------------------|
|--------------------------------------------+

 -------------------2x------------------
+---------------------------------------|
|---------------------------------------|
|----9h109h10--7--9h10--7--9h10--777----|   2x
|--------------------------------777----|
|--------------------------------555----|
+---------------------------------------|

Verse 2

|----10-------|
|-------10----|
|-------------|
|-------------|   35x
|-------------|
|-------------|

|---------------------------|
|---------------------------|
|----7--7--7777777--7--7----|
|----7--7--7777777--7--7----|
|----5--5--5555555--5--5----|
|---------------------------|

Chorus

|----------------------|
|----------------------|
|----999h109h10-7^~\---|
|----------------------|   8x
|----------------------|
|----------------------|

|---------------------|
|---10^---------------|
|----9^----9-10-7~----|
|---------------------|
|---------------------|
|---------------------|

Verse 3

 --------4x-------
|-----------------+
|-----------------|
|----7h9--9h10----|
|-----------------|  
|-----------------|
|-----------------+

 -------------2x-------------- --------------2x-------------
+-----------------------------|-----------------------------+
|----666--101010--888--666----|----101010--888--666--888----|
|----999--9-9-9---999--999----|----9-9-9---999--999--999----|
|-----------------------------|-----------------------------|
|-----------------------------|-----------------------------|
+-----------------------------|-----------------------------+

 ------------2x--------------- 
+-----------------------------|
|----666--101010--888--666----|
|----999--9-9-9---999--999----|
|-----------------------------|   2x  
|-----------------------------|
+-----------------------------|

Bridge

|-----------------------------|
|----666--101010--888--666----|
|----999--9-9-9---999--999----|
|-----------------------------|   4x
|-----------------------------|
|-----------------------------|

|---------------------------|
|---------------------------|
|----7--7--7777777--7--7----|
|----7--7--7777777--7--7----|   2x
|----5--5--5555555--5--5----|
|---------------------------|

Chorus

|----------------------|
|----------------------|
|----999h109h10-7^~\---|
|----------------------|   8x
|----------------------|
|----------------------|

|---------------------|
|---10^---------------|
|----9^----9-10-7~----|
|---------------------|
|---------------------|
|---------------------|

|--------------------------------------------+
|--------------------------------------------|
|----67-9109-67-9/12------67-9109-67-9/17----|
|--------------------------------------------|
|--------------------------------------------|
|--------------------------------------------+

 -------------------2x------------------
+---------------------------------------|
|---------------------------------------|
|----9h109h10--7--9h10--7--9h10--777----|   2x
|--------------------------------777----|
|--------------------------------555----|
+---------------------------------------|
Tap to rate this tab
 
# A B C D E F G H I J K L M N O P Q R S T U V W X Y Z