Song name
# A B C D E F G H I J K L M N O P Q R S T U V W X Y Z

Alesana - Early Morning tab

-----------------------------------------------------------------------------
                             EARLY MOURNING - Alesana
-----------------------------------------------------------------------------
Tabbed by: Kaasz
E-mail: chillriff@gmail.com

Tuning: Dropped C

INTRO:

d|------------------------------------------------------------------|
A|------------------------------------------------------------------|
F|-------3-------3-------3-------3-------2-------2-------2--------2-|
C|-----5-------5-------5-------5-------5-------5-------5--------5---|
G|---5-------5-------5-------5-------2-------2-------2--------2-----|
C|-5-------5-------5-------5-------2-------2-------2--------2-------|

d|------------------------------------------------------------------|
A|------------------------------------------------------------------|
F|------------------------------------------------------------------|
C|-----4-5------5-7------9-7------7-5-(5)---------------------------|
G|---0--------------------------------(3)---------------------------|
C|-0-------0--------0--------0--------------------------------------|

VERSE 1:

                   Last night I forgot...          how the sound...
d|------------------------------------------------------------------|
A|------------------------------------------------------------------|
F|-------3-------3-------3-------3-------2-------2-------2--------2-|
C|-----5-------5-------5-------5-------5-------5-------5--------5---|
G|---5-------5-------5-------5-------2-------2-------2--------2-----|
C|-5-------5-------5-------5-------2-------2-------2--------2-------|

of your voice whispered...            sweet...
d|------------------------------------------------------------------|
A|----------------------------------------------------------------3-|
F|----------------------------------------4-----2-----4-----2-------|
C|-----4-5------5-7------9-7------7-5---5-----5-----5-----5-----5---|
G|---0--------------------------------3-----3-----3-----3-----3-----|
C|-0-------0--------0--------0--------------------------------------|

                   gooodbyes...                    You're eyes...
d|------------------------------------------------------------------|
A|------------------------------------------------------------------|
F|-------3-------3-------3-------3-------2-------2-------2--------2-|
C|-----5-------5-------5-------5-------5-------5-------5--------5---|
G|---5-------5-------5-------5-------2-------2-------2--------2-----|
C|-5-------5-------5-------5-------2-------2-------2--------2-------|

                             Left to die...
d|------------------------------------------------------------------|
A|----------------------------------------------------------------3-|
F|----------------------------------------4-----2-----4-----2-------|
C|-----4-5------5-7------9-7------7-5---5-----5-----5-----5-----5---|
G|---0--------------------------------3-----3-----3-----3-----3-----|
C|-0-------0--------0--------0--------------------------------------|

REFRAIN 1:

   I'm...          a...            lone...         to...            
d|------------------------------------------------------------------|
A|-------6-------6-------7-------7-------3-------3-------5-------5--|
F|-----9-------9-------7-------7-------4-------4-------5-------5----|
C|---9-------9-------7-------7-------4-------4-------5-------5------|
G|-7-------7-------5-------5-------2-------2-------3-------3--------|
C|------------------------------------------------------------------|

         under...  stand...        why...
d|------------------------------------------------------------------|
A|-------6-------6-------7-------7-------3-------3------------------|
F|-----9-------9-------7-------7-------4-------4--------------------|
C|---9-------9-------7-------7-------4-------4-----(5)--------------|
G|-7-------7-------5-------5-------2-------2-------(3)--------------|
C|------------------------------------------------------------------|

CHORUS:

   Why not...              one more night?
d|------------------------------------------------------------------|
A|-------------------------12---------------------------------------|
F|-------12-------14----------------14-------14-12------------------|
C|----12-------12-------12-------12-------12------------------------|
G|-10-------10-------10-------10-------10---------------------------|
C|------------------------------------------------------------------|
   One last...             kiss gooodbye...
d|------------------------------------------------------------------|
A|-------------------------12---------------------------------------|
F|-------12-------14----------------14-------14-12------------------|
C|----12-------12-------12-------12-------12------------------------|
G|------------------------------------------------------------------|
C|-14-------14-------14-------14-------14---------------------------|

   My...                   sweet...    love to-
d|------------------------------------------------------------------|
A|-------------------------12---------------------------------------|
F|-------12-------14----------------14-------14-12------------------|
C|----12-------12-------12-------12-------12------------------------|
G|------------------------------------------------------------------|
C|-12-------12-------12-------12-------12---------------------------|
  -night...
d|------------------------------------------------------------------|
A|-------3-------3-------5-------5----------------------------------|
F|-----4-------4-------5-------5------------------------------------|
C|---4-------4-------5-------5--------------------------------------|
G|-2-------2-------3-------3----------------------------------------|
C|------------------------------------------------------------------|

   I hope...
d|------------------------------------------------------------------|
A|-------------------------12---------------------------------------|
F|-------12-------14----------------14-------14-12------------------|
C|----12-------12-------12-------12-------12------------------------|
G|-10-------10-------10-------10-------10---------------------------|
C|------------------------------------------------------------------|
   the stars...
d|------------------------------------------------------------------|
A|-------------------------12---------------------------------------|
F|-------12-------14----------------14-------14-12------------------|
C|----12-------12-------12-------12-------12------------------------|
G|------------------------------------------------------------------|
C|-14-------14-------14-------14-------14---------------------------|

   still spell...
d|------------------------------------------------------------------|
A|-------------------------12---------------------------------------|
F|-------12-------14----------------14-------14-12------------------|
C|----12-------12-------12-------12-------12------------------------|
G|------------------------------------------------------------------|
C|-12-------12-------12-------12-------12---------------------------|
       out your name...                 where you are...
d|------------------------------------------------------------------|
A|-------3-------3-------5-------5-------3-------3-------5----------|
F|-----4-------4-------5-------5-------4-------4-------5------------|
C|---4-------4-------5-------5-------4-------4-------5--------------|
G|-2-------2-------3-------3-------2-------2-------3----------------|
C|------------------------------------------------------------------|

VERSE 2:

                   Kiss my closing eyes...         help me sleep...
d|------------------------------------------------------------------|
A|------------------------------------------------------------------|
F|-------3-------3-------3-------3-------2-------2-------2--------2-|
C|-----5-------5-------5-------5-------5-------5-------5--------5---|
G|---5-------5-------5-------5-------2-------2-------2--------2-----|
C|-5-------5-------5-------5-------2-------2-------2--------2-------|

 w/out     you      I'm      so       lost...           
d|------------------------------------------------------------------|
A|----------------------------------------------------------------3-|
F|----------------------------------------4-----2-----4-----2-------|
C|-----4-5------5-7------9-7------7-5---5-----5-----5-----5-----5---|
G|---0--------------------------------3-----3-----3-----3-----3-----|
C|-0-------0--------0--------0--------------------------------------|

               And tonight...                      I cry...
d|------------------------------------------------------------------|
A|------------------------------------------------------------------|
F|-------3-------3-------3-------3-------2-------2-------2--------2-|
C|-----5-------5-------5-------5-------5-------5-------5--------5---|
G|---5-------5-------5-------5-------2-------2-------2--------2-----|
C|-5-------5-------5-------5-------2-------2-------2--------2-------|

                             tell me    why...
d|------------------------------------------------------------------|
A|----------------------------------------------------------------3-|
F|----------------------------------------4-----2-----4-----2-------|
C|-----4-5------5-7------9-7------7-5---5-----5-----5-----5-----5---|
G|---0--------------------------------3-----3-----3-----3-----3-----|
C|-0-------0--------0--------0--------------------------------------|

REFRAIN 2:

   I...            can't...        live...         with...            
d|------------------------------------------------------------------|
A|-------6-------6-------7-------7-------3-------3-------5-------5--|
F|-----9-------9-------7-------7-------4-------4-------5-------5----|
C|---9-------9-------7-------7-------4-------4-------5-------5------|
G|-7-------7-------5-------5-------2-------2-------3-------3--------|
C|------------------------------------------------------------------|

          out      your...         warm           embrace...
d|------------------------------------------------------------------|
A|-------6-------6-------7-------7-------3-------3------------------|
F|-----9-------9-------7-------7-------4-------4--------------------|
C|---9-------9-------7-------7-------4-------4-----(5)--------------|
G|-7-------7-------5-------5-------2-------2-------(3)--------------|
C|------------------------------------------------------------------|

CHORUS:

   Why not...              one more night?
d|------------------------------------------------------------------|
A|-------------------------12---------------------------------------|
F|-------12-------14----------------14-------14-12------------------|
C|----12-------12-------12-------12-------12------------------------|
G|-10-------10-------10-------10-------10---------------------------|
C|------------------------------------------------------------------|
   One last...             kiss gooodbye...
d|------------------------------------------------------------------|
A|-------------------------12---------------------------------------|
F|-------12-------14----------------14-------14-12------------------|
C|----12-------12-------12-------12-------12------------------------|
G|------------------------------------------------------------------|
C|-14-------14-------14-------14-------14---------------------------|

   My...                   sweet...    love to-
d|------------------------------------------------------------------|
A|-------------------------12---------------------------------------|
F|-------12-------14----------------14-------14-12------------------|
C|----12-------12-------12-------12-------12------------------------|
G|------------------------------------------------------------------|
C|-12-------12-------12-------12-------12---------------------------|
  -night...
d|------------------------------------------------------------------|
A|-------3-------3-------5-------5----------------------------------|
F|-----4-------4-------5-------5------------------------------------|
C|---4-------4-------5-------5--------------------------------------|
G|-2-------2-------3-------3----------------------------------------|
C|------------------------------------------------------------------|

   I hope...
d|------------------------------------------------------------------|
A|-------------------------12---------------------------------------|
F|-------12-------14----------------14-------14-12------------------|
C|----12-------12-------12-------12-------12------------------------|
G|-10-------10-------10-------10-------10---------------------------|
C|------------------------------------------------------------------|
   the stars...
d|------------------------------------------------------------------|
A|-------------------------12---------------------------------------|
F|-------12-------14----------------14-------14-12------------------|
C|----12-------12-------12-------12-------12------------------------|
G|------------------------------------------------------------------|
C|-14-------14-------14-------14-------14---------------------------|

   still spell...
d|------------------------------------------------------------------|
A|-------------------------12---------------------------------------|
F|-------12-------14----------------14-------14-12------------------|
C|----12-------12-------12-------12-------12------------------------|
G|------------------------------------------------------------------|
C|-12-------12-------12-------12-------12---------------------------|
       out your name...                 where you are...
d|------------------------------------------------------------------|
A|-------3-------3-------5-------5-------3-------3-------5----------|
F|-----4-------4-------5-------5-------4-------4-------5------------|
C|---4-------4-------5-------5-------4-------4-------5--------------|
G|-2-------2-------3-------3-------2-------2-------3----------------|
C|------------------------------------------------------------------|

INTERLUDE:

d|------------------------------------------------------------------|
A|------------------------------------------------------------------|
F|--------------------------------4-------2-------0-------2---------|
C|5-------9-------7-------5---7-------------------------------5-----|
G|5555555555555555555555555555555522222222222222222222222222222222--|
C|5555555555555555555555555555555522222222222222222222222222222222--|

BRIDGE:
I close my eyes...
and you are everything I see... Gooodbye
d|------------------------------------------------------------------|
A|-----------------------------------------------------------------3|
F|4-------2-------0-------------------2-----2-----4-----4-----4-----|
C|------------------------4---5-----5-----5-----5-----5-----5-----5-|
G|000000000000000000000000000000003-----3-----3-----3-----3-----3---|
C|00000000000000000000000000000000----------------------------------|

OUTRO:

      Goodbye to you my love
      I won't forget you
      I'll see you soon
      Goodbye my love
d|------------------------------------------------------------------|
A|------------------------------------------------------------------|
F|9-------7---5---4-------2---0---4---------------------------------|
C|----------------------------------------4---7---5-----------------|
G|------------------------------------------------3-----------------|
C|5---------------2---------------0---------------------------------|
       Goodbye to you my love
       I won't forget you
       Bye Bye, love
d|------------------------------------------------------------------|
A|------------------------------------------------------------------|
F|9-------2---0---4-------2---0---4---------------------------------|
C|----------------------------------------4---7---5-------4---2--4--|
G|------------------------------------------------3-----------------|
C|5---------------2---------------0---------------------------------|

************************************

| /   slide up
| \   slide down
| h   hammer-on
| p   pull-off
| ~   vibrato
| +   harmonic
| x   Mute note
| b   Bend
| pb  Pre-bend
| br  Bend release
| pbr Pre-bend release
| brb Bend release bend

************************************
Tap to rate this tab
# A B C D E F G H I J K L M N O P Q R S T U V W X Y Z