Song name
# A B C D E F G H I J K L M N O P Q R S T U V W X Y Z

Alesana - Tilting The Hourglass tab

Okay,This is how to play it.
Im not sure if its 100%
But maybe 90%
I watched how they play it in some videos so here it is.

Tunning:Drop D. (Dadgbe)

|.| Palm Mute.
|/| Slide.
|p| Pull off.
|H| Hammer On.
|*| Harmonic


PLease Comment and Rate.

Any Questions?
www.myspace.com/xxxprojectjillxxx


00:00
E---------------------------------------------------------------------|
B---------------------------------------------------------------------|
G-----99999999999999-----99999997777777------121212121212121212-------|
D-7-7-77777777777777-7-7-77777775555555--3-3-101010101010101010-------|
A-7-7----------------7-7-----------------3-3--------------------------|
D-7-7----------------7-7-----------------3-3--------------------------|
  . .                . .                 . .

E------------------------------------------|
B------------------------------------------|
G----55555/6666666\5555--------------------|
D-2-233333/4444444\3333--------------------|
A-2-2--------------------------------------|
D-2-2--------------------------------------|
  . .

E-----------------------------------------------------------------------|
B-----------------------------------------------------------------------|
G-----99999999999999-----99999997777777------121212121212121212\--------|
D-7-7-77777777777777-7-7-77777775555555--3-3-101010101010101010\--------|
A-7-7----------------7-7-----------------3-3----------------------------|
D-7-7----------------7-7-----------------3-3----------------------------|
  . .                . .                 . .

00:15

E-------------------------------------------------------------|
B-------------------------------------------------------------|
G-------------------------------------------------------------|
D----------------------------2X-------------------------------|
A-------------------------------------------------------------|
D-0-000--0-000--0-000-0-000-----------------------------------|
 .. ..   ..  . . .   . . . .


YOU TAKE MY BREATH AWAY!

E----------------------------------------14*---------------|
B----------------------------------------14*---------------|
G----------------------------------------------------------|
D---777--777--777--555--777--777--777----------------------|
A---777--777--777--555--777--777--777----------------------|
D---777--777--777--555--777--777--777----------------------|

E-----------------------------------------------------|
B-----------------------------------------------------|
G-----------------------------------------------------|
D-333--333--444----3---3------------------------------|
A-333--333--444--333-333------------------------------|
D-333--333--444--333-333------------------------------|
                 ..  ..


E----------------------------------------14*---------------|
B----------------------------------------14*---------------|
G----------------------------------------------------------|
D---777--777--777--555--777--777--777----------------------|
A---777--777--777--555--777--777--777----------------------|
D---777--777--777--555--777--777--777----------------------|

E-----------------------------------------------------|
B-----------------------------------------------------|
G-----------------------------------------------------|
D-333--333--444----3---3------------------------------|
A-333--333--444--333-333------------------------------|
D-333--333--444--333-333------------------------------|
                 ..  ..
00:35


EMPTYNESS HAS DARKEND MY EYES...

E-----------9------------7-----------5----------------------------|
B-------9------------7-----------5-4-----------3-2----5---5-------|
G--10-8---9------8-6---7-----6-4---------4--2------3----3---3-----|
D-----------------------------------------------------------------|
A-----------------------------------------------------------------|
D-----------------------------------------------------------------|

00:52
MYY EMPTY EYES TELLL THE.....

E------------------------------------------------------------|
B------------------------------------------------------------|
G-666666--8888888--9999999-----------------------------------|
D------------------------------------------------------------|
A-444444--6666666--7777777--6666666---888888---999999--------|
D---------------------------4444444---666666---777777--------|


01:00

E----------| \
B------ ---|
G------ ---|
D-55-------|  4x
A-55--- ---|
D-33--- ---|
  ..    /

E-----------------------------------------------|
B-----------------------------------------------|
G-----------------------------------------------|
D--55555555-----5--5--5-------------------------|
A--55555555-----5--5--5-------------------------|
D--33333333-----3--3--3-------------------------|
                . .   .

01:08
          let ring.          Ring.       Ring.         Ring.
         |---------         |-----     |--------      |---------------|
E------------------------------------------------------------------\--|
B---------------------------------------------------------------------|
G--------14-14-14------------9-9-9-------10-10-10------7-7-7----------|
D-777-----------------777-----------777------------777----------------| 2X
A-777-----------------777-----------777------------777----------------|
D-777-----------------777-----------777------------777----------------|
  ...                 ...           ...            ...             /


01:17.
          let ring.          Ring.       Ring.         Ring.
         |---------         |-----     |--------      |---------------|
E------------------------------------------------------------------\--|
B---------------------------------------------------------------------|
G--------14-14-14------------9-9-9-------10-10-10------7-7-7----------|
D-333-----------------333-----------333------------333----------------| 2X
A-333-----------------333-----------333------------333----------------|
D-333-----------------333-----------333------------333----------------|
  ...                 ...           ...            ...             /

01:26

E--7p0-7p0-3p0-3p0-5p0-5p0-3p0-3p0-7p0-7p0-3p0-3p0-5p0-5p0-3p0-3p0---|2X
B--------------------------------------------------------------------|
G--------------------------------------------------------------------|
D--------------------------------------------------------------------|
A--------------------------------------------------------------------|
D--------------------------------------------------------------------|


01:34
          let ring.          Ring.       Ring.         Ring.
         |---------         |-----     |--------      |-------------|
E-------------------------------------------------------------------|
B-------------------------------------------------------------------|
G--------14-14-14------------9-9-9-------10-11-10------7-7-7--------|
D-777-----------------777-----------777------------777--------------|
A-777-----------------777-----------777------------777--------------|
D-777-----------------777-----------777------------777--------------|
  ...                 ...           ...            ...


01:39
          let ring.          Ring.       Ring.
         |---------         |-----     |----------------------------|
E-------------------------------------------------------------------|
B-------------------------------------------------------------------|
G--------14-14-14------------9-9-9-------10-11-10-------9-7---------|
D-777-----------------777-----------777------------777--------------|
A-777-----------------777-----------777------------777--------------|
D-777-----------------777-----------777------------777--------------|
  ...                 ...           ...            ...

01:43

EMPTYNESS HAS DARKEND MY EYES.

E-----------9------------7-----------5----------------------------|
B-------9------------7-----------5-4-----------3-2----5---5---5---|
G--10-8---9------8-6---7-----6-4---------4--2------3----3---3---3-|
D-----------------------------------------------------------------|
A-----------------------------------------------------------------|
D-----------------------------------------------------------------|

02:00

E---------------------------------------|
B---------------------------------------|
G---------------------------------------|
D-7~----5~---2~---3~--------------------|
A-7~----5~---2~---3~--------------------|
D-7~----5~---2~---3~--------------------|

MYY EMPTY EYES TELLL THE.....

E------------------------------------------------------------|
B------------------------------------------------------------|
G-666666--8888888--9999999-----------------------------------|
D------------------------------------------------------------|
A-444444--6666666--7777777--6666666---888888---999999--------|
D---------------------------4444444---666666---777777--------|

E------|
B------|
G------|4X
D-55---|
A-55---|
D-33---|
  ..


E-----------------------------------------------|
B-----------------------------------------------|
G-----------------------------------------------|
D--55555555-----5--5--5-------------------------|
A--55555555-----5--5--5-------------------------|
D--33333333-----3--3--3-------------------------|
                . .   .

02:37

E-------------------------------------------------------------|
B-------------------------------------------------------------|
G-------------------------------------------------------------|
D--------------2-----2----------------2------2----------------|
A-2-2-2--2-2-2-2-2-2-2--2-2-2---2-2-2-2-2-2--2----------------|
D-2-2-2--2-2-2-2-2-2-2--2-2-2---2-2-2-2-2-2--2----------------|
  ... .  . . .   . .    . . .   . . .   . .

02:46

E------------------------------------------------------------------| \
B-------------------------------------------------------------- ---|
G-------------------------------------------------------------- ---|
D--222-222-222-333-333-333-----------------------------------------|  2X
A--222-222-222-333-333-333---2--222--2--222-2--222--2--222----- ---|
D--222-222-222-333-333-333---2--222--2--222-2--222--2--222----- ---|
   ... ... ... ... ... ...   .  ...  .  ... .  ...  .  ...       /


03:03


E-------------\    --------------|
B------------- |   --------------|
G------------- |   --------------|
D--3-3-7------ 4x  --3~----------|
A--3-3-7------ |   --3~----------|
D--3-3-7------ |   --3~----------|
   . . .      /

03:12

MYY EMPTY EYES TELLL THE.....

E------------------------------------------------------------|
B------------------------------------------------------------|
G-666666--8888888--9999999-----------------------------------|
D------------------------------------------------------------|
A-444444--6666666--7777777--6666666---888888---999999--------|
D---------------------------4444444---666666---777777--------|

E------|
B------|
G------|4X
D-55---|
A-55---|
D-33---|
  ..

E-----------------------------------------------|
B-----------------------------------------------|
G-----------------------------------------------|
D--55555555-----5--5--5-------------------------|
A--55555555-----5--5--5-------------------------|
D--33333333-----3--3--3-------------------------|
                . .   .

03:27

MYY EMPTY EYES TELLL THE.....

E------------------------------------------------------------|
B------------------------------------------------------------|
G-666666--8888888--9999999-----------------------------------|
D------------------------------------------------------------|
A-444444--6666666--7777777--6666666---888888---999999--------|
D---------------------------4444444---666666---777777--------|

E------|
B------|
G------|4X
D-55---|
A-55---|
D-33---|
  ..

E-----------------------------------------------|
B-----------------------------------------------|
G-----------------------------------------------|
D--55555555-----5--5--5-------------------------|
A--55555555-----5--5--5-------------------------|
D--33333333-----3--3--3-------------------------|
                . .   .

03:43
E-------------------------------------------------|
B-------------------------------------------------|
G-----14-14-14-----9-9-9-----10-10-10-------------|
D-777----------777-------777------------555~------|
A-777----------777-------777------------555~------|
D-777----------777-------777------------555~------|
  ...          ...       ...            ..

Hope you like it!
Thats as close at to 100% as i could get.
I 'll make a video of me playing it soon.
Thanks!
-Gil.
Tap to rate this tab
# A B C D E F G H I J K L M N O P Q R S T U V W X Y Z