Song name
# A B C D E F G H I J K L M N O P Q R S T U V W X Y Z

Alesana - Daggers Speak Louder Than Words tab

-------------------------------------------------------------------------------
	         Daggers Speak Louder Than words - Alesana
-------------------------------------------------------------------------------
Tabbed by: Rowell
Email: pointcutbleed@yahoo.com

Tuning: Drop D




Verse 2x
e|---------------------------------------------------------------------------|
B|---------------------------------------------------------------------------|
G|-11-111111-11-11-11-111111-11-11-7-777-7-7-9-999-9-9-----------------------|
D|-9--9-9-9--9--9--9--9-9-9--9--9--5-555-5-5-7-777-7-7-----------------------| 
A|-9--9-9-9--9--9--9--9-9-9--9--9--5-555-5-5-7-777-7-7-----------------------|
D|-9--9-9-9--9--9--9--9-9-9--9--9--5-555-5-5-7-777-7-7-----------------------|

PreChorus
e|---------------------------------------------------------------------------|
B|---------------------------------------------------------------------------|
G|---------------------------------------------------------------------------|
D|-5~---7~------99-------999----99-----99----------5-57----------------------|
A|-5~---7~--999-99-99999-999-99-99-999-99---(2x)---5-57----------------------|
D|-5~---7~--999-99-99999-999-99-99-999-99----------5-57----------------------|
PM          ...    .....     ..    ...

On the second time, add a 9 on the g string when you play the second power chord,
then do a pick scrape.
                                                 

Chorus 2x                                     
e|---------------------------------------------------------------------------|
B|---------------------------------------------------------------------------|
G|-11--------7----------------------------------------9----------------------|
D|-9--(16x)--5--(16x)--777-777-777-----7-555-555-5555------------------------| 
A|-9---------5---------777-777-777-77777-555-555-5555------------------------|
D|-9---------5---------777-777-777-77777-555-555-5555------------------------|
PM                                 ....          ....          

Play prechorus once, then chorus


Verse
e|---------------------------------------------------------------------------|
B|---------------------------------------------------------------------------|
G|-11-111111-11-11-11-111111-11-11-7-777-7-7-9-999-----99--------------------|
D|-9--9-9-9--9--9--9--9-9-9--9--9--5-555-5-5-7-777-777-77--------------------|
A|-9--9-9-9--9--9--9--9-9-9--9--9--5-555-5-5-7-777-777-77--------------------|
D|-9--9-9-9--9--9--9--9-9-9--9--9--5-555-5-5-7-777-777-77--------------------|
PM                                                 ...

Play 2x
e|---------------------------------------------------------------------------|
B|---------------------------------------------------------------------------|
G|-11-111111-11-11-11-111111-11-11-7-777-7-7-9-999-9-9-----------------------|
D|-9--9-9-9--9--9--9--9-9-9--9--9--5-555-5-5-7-777-7-7-----------------------| 
A|-9--9-9-9--9--9--9--9-9-9--9--9--5-555-5-5-7-777-7-7-----------------------|
D|-9--9-9-9--9--9--9--9-9-9--9--9--5-555-5-5-7-777-7-7-----------------------|


I don't know the acoustic part. Sorry.

Prechorus
e|---------------------------------------------------------------------------|
B|---------------------------------------------------------------------------|
G|-------7--79---------------------------------------------------------------|
D|-5-57--5--57---------------------------------------------------------------|
A|-5-57--5--57---------------------------------------------------------------|
D|-5-57--5--57---------------------------------------------------------------|

Play Chorus.

Outro is first three chords of intro.

Tap to rate this tab
 
# A B C D E F G H I J K L M N O P Q R S T U V W X Y Z