Song name
# A B C D E F G H I J K L M N O P Q R S T U V W X Y Z

Alesana - Endings Without Stories tab

Help us improve GuitareTab! Take a short survey!
----------------------------------------------------------------------------
	      Endings Without Stories - Alesana
----------------------------------------------------------------------------
Tabbed by: Blake T.
Email:nubsk8r@comcast.net

Tuning: Drop D
IMPORTANT: Ok so this is the chords and some of the first guitar for this song.
I couldn't hear that well during the chorus so I left out the first guitar there,
sorry. So here's Endings Without Stories and its my first tab but if it
sucks it sucks. Please rate and enjoy!

Guitar 1 (repeats until "This Time...")
e|----------|---Guitar 2----------------------------------------------------|
B|----------|----------------------10---------------------------------------|
G|-11---11--|--12-X4--11-X4--9-X4-----X4------------------------------------|
D|---9-9--9-|-9------9------9-----9-----------------------------------------|
A|----9----9|---------------------------------------------------------------|
D|----------|---------------------------------------------------------------|
"THIS TIME WE DIE!"(verse)
Guitar 1 (repeats until chorus)      Guitar 2
e|--------------------------------|-----------0-----------------------------|
B|--------------------------------|-----------0-----------------------------|
G|--------------------------------|-----------0-----------------------------|
D|-5-0-7-0-5-0-8-0-7-0-5-0-7-0-5-0|-5555--5555----5-----7-----8-----10------|
A|--------------------------------|-5555--5555----5X16--7X16--8X16--10X16---|
D|--------------------------------|-5555--5555----5-----7-----8-----10------|
                                                  .     .     .     .
Guitar 2 continued
e|--------------------------------------------------------------------------|
B|--------------------------------------------------------------------------|
G|--------------------------------------------------------------------------|
D|------------------------------------------12------------------------------|
A|-5555555577777777888888881010101010101010-12-X32--------------------------|
D|-5555555577777777888888881010101010101010-12------------------------------|
   . . . . . . . . . . . . . . . . . . . .

Chorus (look at freaky wi's tab for guitar 1)
Guitar 2
e|--------------------------------------------------------------------------|
B|--------------------------------------------------------------------------|
G|-------------7-----7----------------------------7-----7-------------------|
D|-9-----5-----7-X32-7-X24--7777-9-----7777-5-----7-X32-7-X32---------------|
A|-9-X32-5-X32-5-----4------7777-9-X24-7777-5-X32-5-----4-------------------|
D|-9-----5------------------7777-9-----7777-5-------------------------------|

repeat verse but end with:
Guitar 2          Guitar 2 pre-solo
e|--------------|-----------------------------------------------------------|
B|--------------|-----------------------------------------------------------|
G|--------------|---------------------6------9--------X2--------------------|
D|-10-8-7-8-7-5-|-0-44-0-44-0-44-0-44-x-X12--x-X12--------------------------|
A|-10-8-7-8-7-5-|-0-44-0-44-0-44-0-44-4------7------------------------------|
D|-10-8-7-8-7-5-|-0-44-0-44-0-44-0-44---------------------------------------|

Solo Guitar 1 Note: after every note play that string open
B|-5-7-5-------------------5-7-5--------------------------------------------|
G|-------7-6-4-4-6-7-6-7-9-------7-6-4-9-7-6-7-6-4--------------------------|

B|-5-7-5-------------------5-7-5--------------------repeat solo-------------|
G|-------7-6-4-4-6-7-6-7-9-------7-6-4-4-6-7-6-7-9--------------------------|

Solo Guitar 2 (chords but figure rhythm on your own)
e|-------------------------------------------------------------------------|
B|-------------------------------------------------------------------------|
G|-------------7-7-----------------------------7-7-------------7-7---------|
D|-9---4---5---7-7-9---4---5-pause-9---4---5---7-7-9---4---5---7-7---------|
A|-9---4---5---5-4-9---4---5-------9---4---5---5-4-9---4---5---5-4---------|
D|-9---4---5-------9---4---5-------9---4---5-------9---4---5---------------|
repeat guitar 2's pre solo part once, then chorus, then the beginning

End (again, chords and figure rhythm on your own)
e|-------------------------------------------------------------------------|
B|-------------------------------------------------------------------------|
G|-----------------7-------7-----------------------------------------------|
D|-9-------5-------7-------7-------9~---9~----9-9-9-9----------------------|
A|-9-------5-------5-------4-------9~---9~----9-9-9-9----------------------|
D|-9-------5-----------------------9~---9~----9-9-9-9----------------------|
                                          "I'LL SLIT YOUR THROAT!"
| /  slide up
| \  slide down
| h  hammer-on
| p  pull-off
| ~  vibrato
| +  harmonic
| x  Mute note
============================================================================
Related for Endings Without Stories tab