Song name
# A B C D E F G H I J K L M N O P Q R S T U V W X Y Z

Alesana - Neros Decay tab

Help us improve GuitareTab! Take a short survey!
ALESANA - NERO'S DECAY

THIS SONG IS COOL AND ITS EASY, DROP D# AND PLAY ^_^

INTRO
|-----------------|
|--------6--------|
|----6-------6----|
|--8---8---8------| [ EHMM ALOT OF TIMES JE]
|-----------------|
|-----------------|


           OR

|--13----11---11-13-14-13-11-13----11----13-9----11---|
|-----------------------------------------------------|
|-----------------------------------------------------|
|-----------------------------------------------------|
|-----------------------------------------------------|
|-----------------------------------------------------|

|------------------------------------------------------------13--11---11/13--9--11---|
|----14-----16-----14-----13-----14-----16-----14-----13-----------------------------|
|--13--13-13--13-13--13-13--13-13--13-13--13-13--13-13--13-13------------------------|   
|------------------------------------------------------------------------------------|
|------------------------------------------------------------------------------------|
|------------------------------------------------------------------------------------|

|------------------------------------------------------------13--11---11/13--9--11--13--|
|----14-----16-----14-----13-----14-----16-----14-----13--------------------------------|
|--13--13-13--13-13--13-13--13-13--13-13--13-13--13-13--13-13---------------------------|   
|---------------------------------------------------------------------------------------|
|---------------------------------------------------------------------------------------|
|---------------------------------------------------------------------------------------|

VERSE
|---------------------------|
|---------------------------|
|----6-----8----6-----8-8---|
|--8---8-6----8---8-6-------| [x10]
|---------------------------|
|---------------------------|

TONIGHT IS OVER...
|----------------------------------------------------|
|------------------------------------------11--------|
|--10--8--5--8/10-----13--10---10-10-10-10-10--------|
|--8---6--3--6/8---8--11--8----8--8--8--8--8---------|
|------------------6---------------------------------|
|----------------------------------------------------|
                               .  .  .  .  

CHORUS
MY FLESH IS BURNING .....
|---------------------------------------------------------------------|
|---------------------------------------------------------------------|
|--10-10-10-10-10-10-11-11-11-11-11-11-8-8-8-8-8-8--11--11--10--10----|
|--10-10-10-10-10-10-11-11-11-11-11-11-8-8-8-8-8-8--11--11--10--10----|
|--8--8--8--8--8--8--9--9--9--9--9--9--6-6-6-6-6-6--9---9---8---8-----|
|---------------------------------------------------------------------|

|---------------------------------------------------------------------|
|---------------------------------------------------------------------|
|--10-10-10-10-10-10-11-11-11-11-11-11-8-8-8-8-8-8--13--13--11--11----|
|--10-10-10-10-10-10-11-11-11-11-11-11-8-8-8-8-8-8--13--13--11--11----|
|--8--8--8--8--8--8--9--9--9--9--9--9--6-6-6-6-6-6--11--11--9---9-----|
|---------------------------------------------------------------------|

|---------------------------------------------------------------|
|---------------------------------------------------------------|
|--10-10-10-10-10-10-8-8-8-8-8-8-5-5-5-5-5-5-5--10-10--8--8-----|
|--10-10-10-10-10-10-8-8-8-8-8-8-5-5-5-5-5-5-5--10-10--8--8-----|
|--8--8--8--8--8--8--6-6-6-6-6-6-3-3-3-3-3-3-3--8--8---6--6-----|
|---------------------------------------------------------------|

|------------------------------------------------------------------------|
|------------------------------------------------------------------------|
|-6--6-6-6----8--8-8-8---6--6-6-6---8--8-8-8---10-10-10-10-10-10-10-10---|
|-6--6-6-6----8--8-8-8---6--6-6-6---8--8-8-8---10-10-10-10-10-10-10-10---|
|-4--4-4-4----6--6-6-6---4--4-4-4---6--6-6-6-----------------------------|
|------------------------------------------------------------------------|

|------------------------------------------------------------------------------------|
|------------------------------------------------------------------------------------|
|--10-10-10-10-10---10-10-10-10-10--10-10-10-10--10-10-10-10--10-10-10-10-10-10----|
|--10-10-10-10-10---10-10-10-10-10--10-10-10-10--10-10-10-10--10-10-10-10-10-10----|
|--8--8--8--8--8----8--8--8--8--8---8--8--8--8---8--8--8--8---8--8--8--8--8-8--8-----|
|------------------------------------------------------------------------------------|
                                                              .  .  .  .  . .  .

|------------------------------------------------------------------------|
|------------------------------------------------------------------------|
|--10-10-10-10-10-10---10---10-10101010-10-11---10-1010101010--10-10-11--|
|--10-10-10-10-10-10---10---10-10101010-10-11---10-1010101010--10-10-11--|
|--8--8--8--8--8--8----8----8--8-8-8-8--8--9----8--8-8-8-8-8---8--8--9---|
|------------------------------------------------------------------------|
                               . . . .             . . . . .

|------------------------------------------------------------------------------------|
|------------------------------------------------------------------------------------|
|--10-10-10-10-10---10-10-10-10-10--10-10-10-10--10-10-10-10--10-10-10-10-10-10----|
|--10-10-10-10-10---10-10-10-10-10--10-10-10-10--10-10-10-10--10-10-10-10-10-10----|
|--8--8--8--8--8----8--8--8--8--8---8--8--8--8---8--8--8--8---8--8--8--8--8-8--8-----|
|------------------------------------------------------------------------------------|
                                                              .  .  .  .  . .  .

|-------------------------------------------------------------------|
|-------------------------------------------------------------------|
|--10-10-10-10-10-10---10---10-10101010-10-11---10-1010101010--10---|
|--10-10-10-10-10-10---10---10-10101010-10-11---10-1010101010--10---|
|--8--8--8--8--8--8----8----8--8-8-8-8--8--9----8--8-8-8-8-8---8----|
|-------------------------------------------------------------------|
                               . . . .             . . . . .  

TONIGHT IS OVER...
|----------------------------------------------------|
|------------------------------------------11--------|
|--10--8--5--8/10-----13--10---10-10-10-10-10--------|
|--8---6--3--6/8---8--11--8----8--8--8--8--8---------|
|------------------6---------------------------------|
|----------------------------------------------------|
                               .  .  .  .  

CHORUS
MY FLESH IS BURNING .....
|---------------------------------------------------------------------|
|---------------------------------------------------------------------|
|--10-10-10-10-10-10-11-11-11-11-11-11-8-8-8-8-8-8--11--11--10--10----|
|--10-10-10-10-10-10-11-11-11-11-11-11-8-8-8-8-8-8--11--11--10--10----|
|--8--8--8--8--8--8--9--9--9--9--9--9--6-6-6-6-6-6--9---9---8---8-----|
|---------------------------------------------------------------------|

|---------------------------------------------------------------------|
|---------------------------------------------------------------------|
|--10-10-10-10-10-10-11-11-11-11-11-11-8-8-8-8-8-8--13--13--11--11----|
|--10-10-10-10-10-10-11-11-11-11-11-11-8-8-8-8-8-8--13--13--11--11----|
|--8--8--8--8--8--8--9--9--9--9--9--9--6-6-6-6-6-6--11--11--9---9-----|
|---------------------------------------------------------------------|

|---------------------------------------------------------------|
|---------------------------------------------------------------|
|--10-10-10-10-10-10-8-8-8-8-8-8-5-5-5-5-5-5-5--10-10--8--8-----|
|--10-10-10-10-10-10-8-8-8-8-8-8-5-5-5-5-5-5-5--10-10--8--8-----|
|--8--8--8--8--8--8--6-6-6-6-6-6-3-3-3-3-3-3-3--8--8---6--6-----|
|---------------------------------------------------------------|

|------------------------------------------------------------------------|
|------------------------------------------------------------------------|
|-6--6-6-6----8--8-8-8---6--6-6-6---8--8-8-8---10-10-10-10-10-10-10-10---|
|-6--6-6-6----8--8-8-8---6--6-6-6---8--8-8-8---10-10-10-10-10-10-10-10---|
|-4--4-4-4----6--6-6-6---4--4-4-4---6--6-6-6-----------------------------|
|------------------------------------------------------------------------|

|------------------------------------------------------------13--11---11/13--9--11---|
|----14-----16-----14-----13-----14-----16-----14-----13-----------------------------|
|--13--13-13--13-13--13-13--13-13--13-13--13-13--13-13--13-13------------------------|   
|------------------------------------------------------------------------------------|
|------------------------------------------------------------------------------------|
|------------------------------------------------------------------------------------|

|------------------------------------------------------------13--11---11/13--9-11--|
|----14-----16-----14-----13-----14-----16-----14-----13---------------------------|
|--13--13-13--13-13--13-13--13-13--13-13--13-13--13-13--13-13----------------------|   
|----------------------------------------------------------------------------------|
|----------------------------------------------------------------------------------|
|----------------------------------------------------------------------------------|

BEEEEEEEEEGG  THE FLAMES...
|-----------------------------------------------------------------------------------|
|-----------------------------------------------------------------------------------|
|--6-6-6-6-6-6-3-3-3-5-5-5-5-5-5-3-3-3-6-6-6-6-6-6-3-3-3--6--6--6--6--5--5--5--5----|   [x4]
|--6-6-6-6-6-6-3-3-3-5-5-5-5-5-5-3-3-3-6-6-6-6-6-6-3-3-3--6--6--6--6--5--5--5--5----|
|--4-4-4-4-4-4-1-1-1-3-3-3-3-3-3-1-1-1-4-4-4-4-4-4-1-1-1--4--4--4--4--3--3--3--3----|
|-----------------------------------------------------------------------------------|

AT LONG LAST WE WIL FALL
|-----------------|      |--------|
|--------6--------|      |--------|
|----6-------6----|      |--------|
|--8---8---8------| [x8] |----8---|
|-----------------|      |----8---|
|-----------------|      |----6---|

THATS THE END,  I THINK THIS IS CORRECT, CHECK OUT AT

http://www.youtube.com/watch?v=H1RDCjEdWvY

THANX FREAKY WI ^_^
Related for Neros Decay tab