Song name
# A B C D E F G H I J K L M N O P Q R S T U V W X Y Z

Alesana - And They Call This Tragedy tab

This is my first ever tab, so bear with me. It's probably not accurate but it's enough
everyone to work with and correct IMO. I've seen some people tab this in D#, whatever
is. Sounds more like half-step down. I'm tabbing the rhythm guitar because I haven't 
the rhythm tabs for this yet. I've numbered each column because I don't know enough about
tabs to name em off e.g.(intro, chorus....)

Alesana
And They Call This Tragedy
Tuned half-step down/AKA D#
Rhythm Guitar

(0:01-0:18)
Intro
|-----|    *<----- means palm mutes
|-----|
|-----| Repeat 3 times, on the 3rd stop palm muting.
|6---8| strumming pattern not shown
|6---8|
|4---6|
 *   *

Then
2.
(0:18-0:37)
|------------------------------------------------|
|----3-----3-----3-------------3-----3-----------|
|55----55----55----55-33-----------------------33| Repeat twice
|55----55----55----55-33---66----66---66----66-33|
|33----33----33----33-11---66----66---66----66-11|
|--------------------------44----44---44----44---|
                      **                       **

Then
3.
(0:37-0:51)
|-------------------|
|-------------------| Strumming Pattern not shown
|-------------------|
|6--8--5--8--8--6--8| Play once
|6--8--5--8--8--6--8|
|4--6--3--10-6--4--6|

Then
4.
(0:51-1:00)
|------|
|------|
|5-----|
|5-6-8-| Strumming not shown
|3-6-8-|
|--4-6-|

Right after
4.
(1:00-1:06)
|------------------8-0-8-0------|
|-8-0-8-0-6-0-6-0---------------|
|----------------------------5~-|
|----------------------------5~-|
|----------------------------3~-|
|-------------------------------|
  * * * * * * * *

Shortly after....
5.
(1:11-1:39)
|-----|
|-----|
|----5| Again the srumming pattern is not shown here because this part is
|6~--5|  tricky when it comes to the pattern.
|6~--3|     Repeat 4 times!
|4~---|
     *

(1:39-2:12)
Repeat number 4 twice

Then
(2:12-2:23)
6.
|-------------------------------|  Repeat 4 times!
|-------------------------------|
|------7--------5--------3---3--| This is the part that I'm not sure is
|----------------------------3--| accurate if someone could correct it
|----------------------------1--| please do.
|0--4-----0--4-----0--4---------|

Then

(2:30-2:53)
7.
|--------7---7-----------7---7----------7----7----------|       \
|------11--11---------11--11---------11---11------------|       \
|--------------------------------------------------4--6-|       \
|222-------------222------------222---------------------|       \  (x2)
|222-------------222------------222----------------2--4-|       \
|000-------------000------------000---------------------|       \
                                                                \
    continued                                                   \
                                                                \
|--------7----7---------7-----7----------7----7------------|    \
|-----11---11--------11----11---------11---11--------------|    \
|------------------------------------------------4--6--8--6|    \
|222-------------222-------------222-----------------------|    \
|222-------------222-------------222-------------2--4--6--4|    \
|000-------------000-------------000-----------------------|    \


right after
8.
(2:53-3:00)
|---------|
|---------|
|4--6-----| play once
|4--6---8~|
|2--4---8~| strumming not shown
|-------6~|

finally

(3:00-3:43)

Repeat number 7, but slower and lightly palm mute to get that deep sound.


Remember this is my first tab and I've never learned how to play by ear so this is a
try. Comment tell me how to improve.

My email is vincent3@pacbell.net, send me suggestions and comments.
Tap to rate this tab
# A B C D E F G H I J K L M N O P Q R S T U V W X Y Z