Song name
# A B C D E F G H I J K L M N O P Q R S T U V W X Y Z

Alesana - Red And Dying Evening tab

Help us improve GuitareTab! Take a short survey!
ALESANA - RED AND DYING EVENING
WELL  THIS SONG IS TO EASY OK I CONTINUE WITH TTHE GUITAR IN D# (D# G# C# F# A# D#) OK ENJOY IT

INTRO
YOU'VE TAKEN THE LAST.....
|---------------------------------------------------------------------|
|---------------------------------------------------------------------|
|-4-4-4-4--4--6-6-6-6--6---4--------------4--------------4------------| [x4]
|-4-4-4-4--4--6-6-6-6--6---4-----3-4-3----4-----3-4-3----4----3-4-3---|
|-2-2-2-2--2--4-4-4-4--4---2-2-4-------2--2-2-4-------2--2-2-4-----2--|
|---------------------------------------------------------------------|
  . . . .     . . . . 

                                OR

|-------------------------------------------------------------------------|
|-------------------------11-11-11-11-11-12-12-12-14--14--14--12-12-12-12-|
|-4-4-4-4--4--6-6-6-6--6--X--X--X--X--X--X--X--X--X---X---X---X--X--X--X--| [x4]
|-4-4-4-4--4--6-6-6-6--6--8--8--8--8--8--9--9--9--11--11--11--9--9--9--9--|
|-2-2-2-2--2--4-4-4-4--4--------------------------------------------------|
|-------------------------------------------------------------------------|
  . . . .     . . . . 

VERSE
THE GOD'S OF....
|---------------------------------|
|---------------9-----------------|
|--8-10-8-10-11---11--8-8-8-8-----|
|---------------------8-8-8-8-----| [x4]
|---------------------6-6-6-6-----|
|---------------------------------|

YOU'VE  TAKEN THE....
|------------------------------------------------------6---9------|
|--------------------------------------------------------7----7---|
|--4------6-6-6-6-6-6-6-6--4-4-4-----6-6-6-6-6-6-6-6-6------------|
|--4------6-6-6-6-6-6-6-6--4-4-4-----6-6-6-6-6-6-6-6-6------------|
|--2------4-4-4-4-4-4-4-4--2-2-2-----4-4-4-4-4-4-4-4-4------------|
|-----1//-------------------------1//-----------------------------|

CHORUS
THE BLOOOD
|----9-7-6-6-7-6------|      |--------------------------------------6-7-6--|
|--7-------------7-6--|      |------------------------------------9--------|
|---------------------| [x4] |--6-6-6-6-6-6-6-6-6-6-6-6---3--3-3-----------|
|---------------------|      |--6-6-6-6-6-6-6-6-6-6-6-6---3--3-3-----------|
|---------------------|      |--4-4-4-4-4-4-4-4-4-4-4-4---1--1-1-----------|
|---------------------|      |---------------------------------------------|
                                . . . . . . . . . . . . 

VERSE
THE SHADOW OF....
|---------------------------------|
|---------------9-----------------|
|--8-10-8-10-11---11--8-8-8-8-----|
|---------------------8-8-8-8-----| [x4]
|---------------------6-6-6-6-----|
|---------------------------------|

YOU'VE  TAKEN THE....
|------------------------------------------------------6---9------|
|--------------------------------------------------------7----7---|
|--4------6-6-6-6-6-6-6-6--4-4-4-----6-6-6-6-6-6-6-6-6------------|
|--4------6-6-6-6-6-6-6-6--4-4-4-----6-6-6-6-6-6-6-6-6------------|
|--2------4-4-4-4-4-4-4-4--2-2-2-----4-4-4-4-4-4-4-4-4------------|
|-----1//-------------------------1//-----------------------------|

CHORUS
THE BLOOOD
|----9-7-6-6-7-6------|      |--------------------------------------------|
|--7-------------7-6--|      |--------------------------------------------|
|---------------------| [x4] |--6-6-6-6-6-6-6-6-6-6-6-6---3--3-3----3-3---|
|---------------------|      |--6-6-6-6-6-6-6-6-6-6-6-6---3--3-3----3-3---|
|---------------------|      |--4-4-4-4-4-4-4-4-4-4-4-4---1--1-1----1-1---|
|---------------------|      |--------------------------------------------|
                                . . . . . . . . . . . . 
FOREVER GONE...
|----9-7-6-6-7-6------|      |--------------------------------------|
|--7-------------7-6--|      |--------------------------------------|
|---------------------| [x4] |--6-6-6-6-6-6-6-6-6-6-6-6---3--3-3----|
|---------------------|      |--6-6-6-6-6-6-6-6-6-6-6-6---3--3-3----|
|---------------------|      |--4-4-4-4-4-4-4-4-4-4-4-4---1--1-1----|
|---------------------|      |--------------------------------------|
                                . . . . . . . . . . . . 
BRIDGE
|---------------|  |--9-0----------|      |---------|  |--9-0----------|
|---------------|  |------8-0-9-0--|      |---------|  |------8-0-9-0--|
|--6-3-5---5----|  |---------------| [x6] |--6-3-5--|  |---------------| [x8]
|--6-3-5-6-5-3--|  |---------------|      |--6-3-5--|  |---------------|
|--4-1-3-6-3-3--|  |---------------|      |--4-1-3--|  |---------------|
|--------4---1--|  |---------------|      |---------|  |---------------|


YOU COULD NEVER...
|-------------------------------------------------------------------------|
|-------------------------------------------------------------------------|
|------------5-5--5-5--6-6--6-6--3-3--3-3---------------------------------|
|--3-3--3-3--5-5--5-5--6-6--6-6--3-3--3-3--3-3--3-3--3-3--3-3--3-3--3-3---|
|--3-3--3-3--3-3--3-3--4-4--4-4--1-1--1-1--3-3--3-3--3-3--3-3--3-3--3-3---|
|--1-1--1-1--------------------------------1-1--1-1--1-1--1-1--1-1--1-1---|
   . .  . .  . .  . .  . .  . .  . .  . .  . .  . .  . .  . .  . .  . .


OUTHRO
WAKE INTO THE....
|--------------------------------|
|---------------9----------------|
|--8-10-8-10-11---11--8-8--6-----|
|---------------------8-8--8-----| [x4]
|---------------------6-6--------|
|--------------------------------|

YOU'VE TAKEN THE LAST OF ME
|------------------|
|---------------9--|
|--8-10-8-10-11----|
|------------------|
|------------------|
|------------------|


WELL THATS  ALL


THANX  FREAKY WI ^_^
Related for Red And Dying Evening tab