Song name
# A B C D E F G H I J K L M N O P Q R S T U V W X Y Z

Alesana - Pathetic Ordinary tab

Help us improve GuitareTab! Take a short survey!
ALESANA - PATHETIC, ORDINARY

ENJOY THE SOONG, ITS A GOOD SONG WII ^_^  DROP D#

INTRO
|---------------------------------------------------------------------|
|--11---11-11---11-----------------11---11-11---11--------------------|
|-----8-------8----10-8-10-10-8-10----8-------8----10-8-10-10-8-10----|
|---------------------------------------------------------------------|
|---------------------------------------------------------------------|
|---------------------------------------------------------------------|

|------------------------------------------------------|
|--9-----9-----9-----8-----8----8----11---11-9---8-----|
|----8-----8-----8-----8-----8----8-----8------8-------|
|------10----10----10----10----8----8------------------|
|------------------------------------------------------|
|------------------------------------------------------|

|------------------------------------------------------|
|--9-----9-----9-----8-----8----8----9---9-11---11-----|
|----8-----8-----8-----8-----8----8----8------8--------|
|------10----10----10----10----8----8------------------|
|------------------------------------------------------|
|------------------------------------------------------|

|---------------------------------------------------------------------|
|--11---11-11---11-----------------11---11-11---11--------------------|
|-----8-------8----10-8-10-10-8-10----8-------8----10-8-10-10-8-10----|
|---------------------------------------------------------------------|
|---------------------------------------------------------------------|
|---------------------------------------------------------------------|

|------------------------------------------------------------|
|--9-----9-----9-----8-----8-9-8-8-8-8-8-9-9-9-9-11-11-11----|
|----8-----8-----8-----8-------------------------------------|
|------10----10----10----10----------------------------------|
|------------------------------------------------------------|
|------------------------------------------------------------|

VERSE
IN DREAMS
|-------------------------------6------6----|
|--9-0-8-0-6-0-9-0-8-0-6-0-9-0-8--9-0-8-----|
|-------------------------------------------|
|-------------------------------------------| [x4]
|-------------------------------------------|
|-------------------------------------------|

HER SOFT EYES SEE....
|------------------------------------11-0-9-0-8----|
|--9-0-8-0-6-0-9-0-8-0-6-0-8-0-9-0-11--------------|
|--------------------------------------------------|
|--------------------------------------------------| [x3]
|--------------------------------------------------|
|--------------------------------------------------|

|------------------------------------11-----------11-----|
|--9-0-8-0-6-0-9-0-8-0-6-0-8-0-9-0-11---8-0-9-0-11-------|
|--------------------------------------------------------|
|--------------------------------------------------------| 
|--------------------------------------------------------|
|--------------------------------------------------------|

       AS HER SELFISH....
|---------------------------------|      |------------|
|------------------------------8--|      |--9-8-------|
|--5-5-8-5-5-7-5-5-8-5-5-7-5-5----|      |------8-----|
|---------------------------------| [x3] |--------6---|
|---------------------------------|      |------------|
|---------------------------------|      |------------| 

CHORUS
FRIGID AIR LEAVES .....
|-------------------------------------------------------------------|
|-------------------------------------------------------------------|
|-------------------------------------------------------------------|
|--6-6-6-6-6-6-6-6-6-6--6-6--6-6--5-5-5-5-5-5-5-5-5-5-5--5-5--5-5---|
|--6-6-6-6-6-6-6-6-6-6--6-6--6-6--5-5-5-5-5-5-5-5-5-5-5--5-5--5-5---|
|--4-4-4-4-4-4-4-4-4-4--4-4--4-4--3-3-3-3-3-3-3-3-3-3-3--3-3--3-3---|

|-------------------------------------------------------------------------|
|-------------------------------------------------------------------------|
|--------------------------------------------10-10-10-10-10-10-10-10-10---|
|--10-10-10-10-10-10-10-10-10--10-10--10-10--10-10-10-10-10-10-10-10-10---|
|--10-10-10-10-10-10-10-10-10--10-10--10-10--8--8--8--8--8--8--8--8--8----|
|--8--8--8--8--8--8--8--8--8---8--8---8--8--------------------------------|

|--6-8---8-6--8-6-----------------6----|
|------9----------9-8-6--6--6--6--6----|
|------------------------8--8--8-------|
|--------------------------------------|
|--------------------------------------|
|--------------------------------------|

VERSE
I'M BROKEN BY HER.....
|--------------------------------8-----8-----8-----8-----|
|--6-8-9-6-8-9-8-9-11-8-9-11-8-11--8-11--8-11--8-11------|
|--------------------------------------------------------|
|--------------------------------------------------------| [x4]
|--------------------------------------------------------|
|--------------------------------------------------------|

MY WINGLESS...
|-------------------------------------------------------------------|
|-------------------------------------------------------------------|
|-------------------------------------------------------------------|
|--8-8-8-8--8-10-11--8-8-8-8--10-10-10-10--10-11-8--10-10-10-10-----|
|--8-8-8-8-----------8-8-8-8--10-10-10-10-----------10-10-10-10-----|
|--6-6-6-6-----------6-6-6-6--8--8--8--8------------8--8--8--8------|

|--------------------------------------------------------------------------|
|--------------------------------------------------------------------------|
|--8-8-8-8--8-10-6--8-8-8-8--10-10-10-10----------10-10-10-10-10-10-10-10--|
|--8-8-8-8----------8-8-8-8--10-10-10-10--8-10-11-10-10-10-10-10-10-10-10--|
|--6-6-6-6----------6-6-6-6--8--8--8--8-----------8--8--8--8--8--8--8--8---|
|--------------------------------------------------------------------------|
                                                  .  .  .  .  .  .  .  . 

(GUITAR CLEAN)
|--6-----------------6----------------------------------------|
|--6-----6-----9-----6-----6-----8-9-8--------8-9-8---11------|
|--8-----5-----8-----8-----5-----------8------------8---------|
|--8-----3-----6-----8-----3-------------6--------------------|
|--6-----------------6----------------------------------------|
|-------------------------------------------------------------|


CHORUS
FRIGID AIR LEAVES .....
|-------------------------------------------------------------------|
|-------------------------------------------------------------------|
|-------------------------------------------------------------------|
|--6-6-6-6-6-6-6-6-6-6--6-6--6-6--5-5-5-5-5-5-5-5-5-5-5--5-5--5-5---|
|--6-6-6-6-6-6-6-6-6-6--6-6--6-6--5-5-5-5-5-5-5-5-5-5-5--5-5--5-5---|
|--4-4-4-4-4-4-4-4-4-4--4-4--4-4--3-3-3-3-3-3-3-3-3-3-3--3-3--3-3---|

|-------------------------------------------------------------------------|
|-------------------------------------------------------------------------|
|--------------------------------------------10-10-10-10-10-10-10-10-10---|
|--10-10-10-10-10-10-10-10-10--10-10--10-10--10-10-10-10-10-10-10-10-10---|
|--10-10-10-10-10-10-10-10-10--10-10--10-10--8--8--8--8--8--8--8--8--8----|
|--8--8--8--8--8--8--8--8--8---8--8---8--8--------------------------------|

|--8-6-----|
|------9---|
|----------|
|----------|
|----------|
|----------|

|-------------------------------------------------------------------|
|-------------------------------------------------------------------|
|-------------------------------------------------------------------|
|--6-6-6-6-6-6-6-6-6-6--6-6--6-6--5-5-5-5-5-5-5-5-5-5-5--5-5--5-5---|
|--6-6-6-6-6-6-6-6-6-6--6-6--6-6--5-5-5-5-5-5-5-5-5-5-5--5-5--5-5---|
|--4-4-4-4-4-4-4-4-4-4--4-4--4-4--3-3-3-3-3-3-3-3-3-3-3--3-3--3-3---|

|-------------------------------------------------------------------------|
|-------------------------------------------------------------------------|
|--------------------------------------------10-10-10-10-10-10-10-10-10---|
|--10-10-10-10-10-10-10-10-10--10-10--10-10--10-10-10-10-10-10-10-10-10---|
|--10-10-10-10-10-10-10-10-10--10-10--10-10--8--8--8--8--8--8--8--8--8----|
|--8--8--8--8--8--8--8--8--8---8--8---8--8--------------------------------|

|--6-8---8-6--8-6-----------------6----|
|------9----------9-8-6--6--6--6--6----|
|------------------------8--8--8-------|
|--------------------------------------|
|--------------------------------------|
|--------------------------------------|

|--------------------------------8-----8-----8-----8-----|
|--6-8-9-6-8-9-8-9-11-8-9-11-8-11--8-11--8-11--8-11------|
|--------------------------------------------------------|
|--------------------------------------------------------|
|--------------------------------------------------------|
|--------------------------------------------------------|

|---------------------------6-8-9-6-8-9-----8-----8------|
|--6-8-9-6-8-9-8-9-11-8-9-11------------8-11--8-11-------|
|--------------------------------------------------------|
|--------------------------------------------------------|
|--------------------------------------------------------|
|--------------------------------------------------------|

|---------------------------8-10-11-8-10-11-8-10-11-8-10-11----|
|--6-8-9-6-8-9-8-9-11-8-9-11-----------------------------------|
|--------------------------------------------------------------|
|--------------------------------------------------------------|
|--------------------------------------------------------------|
|--------------------------------------------------------------|

|--10-12-13-10-12-13-12-13-15-12-13-15--16-16-16-15-15-15------|
|--------------------------------------------------------------|
|--------------------------------------------------------------|
|--------------------------------------------------------------|
|--------------------------------------------------------------|
|--------------------------------------------------------------|

|------------------------------|
|--8-9-8-9-9-9--12-12--14-14---|
|------------------------------|
|------------------------------| [x3]
|------------------------------|
|------------------------------|

|-------------------------------11---|
|--------------------7-9--8-7-11-----|
|----------11-8--6-8-----------------|
|--9-8-6---11-8----------------------|
|--------6-9--6----------------------|
|------------------------------------|
   . . . .       . . . .  . .  . .

|------------------------------|
|--8-9-8-9-9-9--12-12--14-14---|
|------------------------------|
|------------------------------| [x3]
|------------------------------|
|------------------------------|

|-------------------------------11---|
|--------------------7-9--8-7-11-----|
|----------11-8--6-8-----------------|
|--9-8-6---11-8----------------------|
|--------6-9--6----------------------|
|------------------------------------|
   . . . .       . . . .  . .  . .

OUTHRO
|-------------6-0-----8-0-6-0-------------6-0------8-0-6-0-----------6-0-----8--|
|--9-0-8-0-6-0---9-0-8--------9-0-8-0-6-0-----9-0-8-------9-0-8-0-6-0---9-0-8---|
|-------------------------------------------------------------------------------|
|-------------------------------------------------------------------------------|
|-------------------------------------------------------------------------------|
|-------------------------------------------------------------------------------|

WELL RTHATS  ALLL,  ITS AGOOD SONG

THANX FREAKY WII ^_^!!!
Related for Pathetic Ordinary tab