Song name
# A B C D E F G H I J K L M N O P Q R S T U V W X Y Z

Alesana - Goodbye Good Night For Good tab

Help us improve GuitareTab! Take a short survey!
ALESANA - GOODBYE, GOOD NIGHT, FOR GOOD

OK GUYS THERE IS THE LAST TAB THAT I'LL PUT OF ALESANA UNTIL THEY REALISE THE NEW ALBUM 
WELL DROP D# AND MAKE THE CROWD GET CRAZY OK ^_^

INTRO
|--11---------X-X-----11----11----11----11----11------|
|----11-9-8---X-X--8-9---8-9---8-9---8-9---8-9--------|
|----------8--X-X-------------------------------------|
|-----------------------------------------------------|
|-----------------------------------------------------|
|-----------------------------------------------------|


|-----------------11--------------11--------------11--|
|---8-10-8-9-8-9-8--8-10-8-9-8-9-8--8-10-8-9-8-9-8----|
|--8--------------------------------------------------|
|-----------------------------------------------------|
|-----------------------------------------------------|
|-----------------------------------------------------|

|----------------11--------------11--------------11-------|
|--8-10-8-9-8-9-8--8-10-8-9-8-9-8--8-10-8-9-8-9-8--8-10---|
|---------------------------------------------------------|
|---------------------------------------------------------|
|---------------------------------------------------------|
|---------------------------------------------------------|

VERSE
HELP MEEEE
|--------------11--------------11--------------11--------------------|
|--10-8-9-8-9-8--8-10-8-9-8-9-8--8-10-8-9-8-9-8--8-10-8-9-8-9-8------|
|--------------------------------------------------------------10-8--|
|--------------------------------------------------------------------| [x3]
|--------------------------------------------------------------------|
|--------------------------------------------------------------------|

|--------------11--------------11------|
|--10-8-9-8-9-8--8-10-8-9-8-9-8--8-10--|
|--------------------------------------|
|--------------------------------------|
|--------------------------------------|
|--------------------------------------|

JEALOUSY REARS ITS...
|----------11-------|      |-----------------------------------------------|
|--10-8-9-8--8------|      |-----------------------------------------------|
|-------------10-8--| [x4] |-----------------------------------------------|
|-------------------|      |--10-10-10-10-10-10-10-10-10-10-10-10-10-10-10-|
|-------------------|      |--10-10-10-10-10-10-10-10-10-10-10-10-10-10-10-|
|-------------------|      |--8--8--8--8--8--8--8--8--8--8--8--8--8--8--8--|
   . . . . . . . .            .  .  .  .  .           .  .  .  .

GOODBYE GOOD....
|----------11-------|      |-----------------------------------|
|--10-8-9-8--8------|      |---------------[5]-[5]-[5]-[5]-----|
|-------------10-8--|      |---------------[5]-[5]-[5]-[5]-----|
|-------------------| [x8] |--5-5--5--5-5--[5]-[5]-[5]-[5]-----|
|-------------------|      |--5-5--5--5-5----------------------|
|-------------------|      |--3-3--3--3-3----------------------|
   . . . . . . . .            . .  .  . .

CHORUS
NOW I'LL FIGHT...
|---------------------------|  |----------------|
|---------------------------|  |---6-8---6-8----|
|--8-8-8-8-8//--------------|  |--8---7-8---7---| [x A LOT OF TIMES AHAH]
|--8-8-8-8-8//--5-5-5-5-5---|  |----------------|
|--6-6-6-6-6//--5-5-5-5-5---|  |----------------|
|---------------3-3-3-3-3---|  |----------------|

VERSE
HELPS MEE TO....
|-----------------------------|
|-----------------------------|
|-----------------------------| [x2]
|--6-----8-----10-----5-------|
|--6-----8-----10-----5-------|
|--4-----6-----8------3-------|

IT HAUNTS ME...
|-------------------------------------------------------------------|
|-------------------------------------------------------------------|
|-------------------------------------------------------------------| [x3]
|--6-6-6-6-6-6-6-8-8-8-8-8-8-8-10-10-10-10-10-10-10-5-5-5-5-5-5-5---|
|--6-6-6-6-6-6-6-8-8-8-8-8-8-8-10-10-10-10-10-10-10-5-5-5-5-5-5-5---|
|--4-4-4-4-4-4-4-6-6-6-6-6-6-6-8--8--8--8--8--8--8--3-3-3-3-3-3-3---|
   . . . . . . . . . . . . . . .  .  .  .  .  .  .  . . . . . . .

|-----------------------------------------------------|
|-----------------------------------------------------|
|--------------------------------6-8---6-8---6-8------|
|--6-6-6-6-6-6-6-8-8-8-8-8-8-8--8---7-8---7-8---7-8---|
|--6-6-6-6-6-6-6-8-8-8-8-8-8-8------------------------|
|--4-4-4-4-4-4-4-6-6-6-6-6-6-6------------------------|
   . . . . . . . . . . . . . .

CHORUS
NOW I'LL FIGHT...
|---------------------------|  |----------------|
|---------------------------|  |---6-8---6-8----|
|--8-8-8-8-8//--------------|  |--8---7-8---7---| [x A LOT OF TIMES AHAH]
|--8-8-8-8-8//--5-5-5-5-5---|  |----------------|
|--6-6-6-6-6//--5-5-5-5-5---|  |----------------|
|---------------3-3-3-3-3---|  |----------------|

I FIND PLEASURE....
|-----11--|      |--------------|
|--8-9----|      |--------------|
|---------|      |--------------|
|---------| [x6] |--10-10--10---|
|---------|      |--10-10--10---|
|---------|      |--8--8---8----|
                    .  .

|-----11--|      |-------------------------------------|
|--8-9----|      |-------------------------------------|
|---------|      |-------------------------------------|
|---------| [x4] |--10-10--10-10--10-10--10-10---10----|
|---------|      |--10-10--10-10--10-10--10-10---10----|
|---------|      |--8--8---8--8---8--8---8--8----8-----|
                    .  .   .  .   .  .   .  .

BRIDGE    (GUITAR CLEAN)
|--------6-------6---|
|--6---6---6---6-----|
|----8-------8-------|
|--------------------| [x A LOT OF TIMES]
|--------------------|
|--------------------|

OUTHRO
JEALOUSY REARS ITS...
|-----------------------------------------------------|
|-----------------------------------------------------|
|-----------------------------------------------------| [x4]
|--6-6-6-6-6-6-6-8-8-8-8-8-8-8-10-10-10-10-10-10-10---|
|--6-6-6-6-6-6-6-8-8-8-8-8-8-8-10-10-10-10-10-10-10---|
|--4-4-4-4-4-4-4-6-6-6-6-6-6-6-8--8--8--8--8--8--8----|

|-------------------------|
|-------------------------|
|-------------------------|
|--6--------10-10-10-10---|
|--6--------10-10-10-10---|
|--4--------8--8--8--8----|


OK  THATS ALL THE TAB OF I THINK THE DEMO OF THIS SONG, YESTERDAY I HEARD ANOTHER 
OF THIS SONG AND I SAID WOOOOW o_O JAJA, BUT THERES NO PROBLEM THE TAB CHANGE AFTER THE SECOND 
AND YOU PLAY


I FIND PLEASURE....
|-----------------|      |--------------|
|--8-0-9-0-8-0-6--|      |--------------|
|-----------------|      |--------------|
|-----------------| [x3] |--10-10--10---|
|-----------------|      |--10-10--10---|
|-----------------|      |--8--8---8----|
                            .  .

|-----------------|      |-------------------------------------|
|--8-0-9-0-8-0-6--|      |-------------------------------------|
|-----------------|      |-------------------------------------|
|-----------------| [x3] |--10-10--10-10--10-10--10-10---10----|
|-----------------|      |--10-10--10-10--10-10--10-10---10----|
|-----------------|      |--8--8---8--8---8--8---8--8----8-----|
                            .  .   .  .   .  .   .  .

I CAN'T EXPLAIN WHAT.....
|------------------------------|
|------------------------------|
|------------------------------|
|--10------10------10-----10---|
|--10------10------10-----10---|
|--8-------8-------8------8----|

Soft flesh gives way to trembling hand...

OUTHRO
BEAUTIFUL......
|-----------------------------------------------------------------|  /
|--12-12-12-12-12-12-------------13-13-13-13-13-13----------------|  /
|--X--X--X--X--X--X--10-12-13-10-X--X--X--X--X--X--10-12-13-10----|  /
|--9--9--9--9--9--9--------------10-10-10-10-10-10----------------|  /
|-----------------------------------------------------------------|  /
|-----------------------------------------------------------------|  /
                                                                     / [x2]
|-----------------------------------------------------------------|  /
|--12-12-12-12-12-12----------------------------------------------|  /
|--X--X--X--X--X--X--10-12-13-10-10-10-10-10-10-10--10-12-13-10---|  /
|--9--9--9--9--9--9--------------X--X--X--X--X--X-----------------|  /
|--------------------------------8--8--8--8--8--8-----------------|  /
|-----------------------------------------------------------------|  /

|------------------------|
|--12-12-12------13//----|
|--X--X--X-------X-//----|
|--9--9--9-------10//----|
|------------------------|
|------------------------|

OK GUYS I HOPE THE TABS ARE FINE, CHECK THE VIDEO:

http://www.youtube.com/watch?v=K6bKCL-dw9w

THANX FREAKY WII ^_^!!!!
Related for Goodbye Good Night For Good tab