Song name
# A B C D E F G H I J K L M N O P Q R S T U V W X Y Z

Alessandro Piccinini - Chiaccona In Partite Variate tab

Tuning (D A D F# B E) 

   Tempo 160
   3/4
    |  |  |    |  |  |   |  |  |    |  |   |     |  |   |    |   |  |  
||--2-----2--|-2--0----|----------|----------||-------0-2--|-3-2-0#-2-0---|
||*-3-----3--|-3--2----|-0-----3--|-3--2----*||*-3---------|--------------|
||--3-----3--|-3--3----|-0--------|----------||--3---------|--------------|
||--0--------|-0--2----|-0--------|----------||--0------0--|-0------------|
||*----------|----0----|-2--------|----0----*||*----0------|-----0--------|
||-----0-----|---------|----4====-|-5--------||--0---------|--------------|
    1             2      1     1____2  1         3      1    2 1(#1)2   
    3             3         3_______3            2
    2             1

  |  |   |    |  |  |       |  |   |
|-----------|-0---------||-------0-2--|
|-3=====----|-------2--*||*-----------|
|-----------|-----------||------------|
|-----------|-----------||--0---------|
|-2---------|----0-----*||*-----------|
|----2h4-5--|-----------||-----0------|
  2                 1              1
  1__1h3 4             
  (barre)

  | |  |   |. |. |.   |  |  |       |  |   |
|-2-0#---|----------|-0---------||-------0-2-0--|
|--------|-0---2-3--|-------2--*||*-3-----------|
|--------|-0--------|-----------||--------------|
|-0------|-0--------|-----------||-----0--------|
|---4----|-2--------|----0-----*||*-------------|
|--------|----------|-5---------||--0-----------|
  1(#1)    1   2 3    3     1       2      1
    3

  |   |   |     |   |   |     |   |   |        |. |. |.   | . |.|.
|-3-2-0---2-0-|---0-2---0---|---------0----||------0-2--|-0#--------|
|-------3-----|-3-----3---3-|-2-0-2-3---2-*||*-3--------|-----3-2---|
|-------------|-------------|--------------||-----------|-----------|
|-0-----------|-------------|--------------||--------0--|-----------|
|-----0-------|-2-----------|-2---0-------*||*----------|-0---------|
|-------------|---------5---|--------------||--0--------|-----------|
  2 1   2 1     3   1 3   2   2   2 3   2      2     1   (#1) 2 1
                1       4     1

  |. |. |.   |. |. |.      |  |  |    |  |  |   |   |   |     |.  |. |.
|----------|-0---------||-----------|---------|-------------|--------------||
|-0---2-3--|-----3-2--*||*-3--3--3--|-3--2----|-0---0-2-0-2-|-3-0-2---0-2-*||
|----------|-----------||-----------|---------|---3---------|--------------||
|----------|-----------||--0--------|---------|-------------|--------------||
|-2--------|-------0--*||*-------4--|-2--0----|-------------|-----0-------*||
|-------4--|-5---------||-----------|---------|-5===========|=====---------||
      2 1        1_1       2__2__2____2  1        2   1   1   2   1     1
  1     3____4                   3    1         4_________________

    |  |   |    |  |  |    |  |   |
||------------|-2-----0--|-----------|
||*-3---------|-3-----2--|-0------3--|
||---------0--|-3-----3--|-0---------|
||-------0===-|-0==---2--|-0----0----|
||*----0=====-|----0-----|-2---------|
||--0========-|----------|----4------|
    2           1     2           1
                3     3    1  3_______  
                2     1    

  |  |  |       |  |   |     |   |   |
|-0---------||---------2---|-2-------0---|
|-------2--*||*-3----3---3-|---3---2---2-|
|-----------||-------------|-------------|
|-----------||-----0-------|-0-----------|
|----0-----*||*------------|-----0-------|
|-5---------||--0----------|-------------|
        1       2    2 1 2   1 2   1   1
 _3

  |  |   |     |   |   |        | | |  | | |  |  |  |    |  |  |
|------------|--------------||----2--|---0--|----------|-0--------||
|-0------3---|-3-------2---*||*---3--|---2--|----0-----|-------2-*||
|(0)---------|--------------||----3--|---3--|----0-----|----------||
|(0)---0---0-|---0---2---2--||--0----|---2--|----0-----|----------||
|-2----------|-----0-------*||*------|-0----|-2--------|----0----*||
|----4-------|-5------------||-------|------|-------4--|-5--------||
         1     1     2 1          1      2                     1
  1  3_________3                  3      3    1           
                                  2      1          3____3

    |   |   |     |   |   |     |   |   |     |   |   |       | | |
||------2---2---|-2---2---2---|-0---0---0---|-0---0---0----||------||
||*---3---3---3-|---3---3---3-|---3---3---3-|---3---3---2-*||-3----||
||--------------|-------------|-------------|--------------||------||
||--------------|-------------|-------------|--------------||-0----||
||*-------------|-------------|-----0---2---|-----0-------*||------||
||--0==========-|-2---4---0---|-5-----------|-5------------||-0----||
      2 1 2 1 2   1 2 1 2 1 2     2   2         2   2   1     2
                  1   3         4       1     4
                 barre
Tap to rate this tab
 
# A B C D E F G H I J K L M N O P Q R S T U V W X Y Z