Guitaretab - guitar tabs
Song name
# A B C D E F G H I J K L M N O P Q R S T U V W X Y Z

Alestorm - Over The Seas tab

Alestorm  Over The Seas

Tabbed by slayerized 88
Please send any comments, corrections, additions etc to hynes666@hotmail.com

Tune guitar down 2 steps to C

. = palm mute

Intro  play once
|--------------------------------------------|
|--------------------------------------------|
|--------------------------------------------|
|--------------5----------------5------------|
|-7-5-2-----3--3-5--7-5-2-----3-3--------2---|
|-5-3-0-0-0-1----3--5-3-0-0-0-1---0-0000-0---|
        . .               . .     . ....

Riff 1  play once
|---------------------------------------------------------------------------------------|
|---------------------------------------------------------------------------------------|
|---------------------------------------------------------------------------------------|
|------------------------5-----------------------------------------5--------------------|
|-7-----5-----2----3-----3-3333-333-5-------7-----5-----2----3-----3-3333 333--------2--|
|-5-555-3-333-0-00-1-000------------3-3333--5-555-3-333-0-00-1-000------------000000-0--|
    ...   ...   ..   ...   .... ...   ....    ...   ...   ..   ...   .... ... ...... 

Riff 2  play once
|----------------------------------------------|
|----------------------------------------------|
|----------------------------------------------|
|-5-----------8--------------------------------|
|-3-333-5-----6-666-8-----3-----3-----5-----5--|
|-------3-333-------6-666-1-111-1-111-3-333-3--|
    ...   ...   ...   ...   ...   ...   ...

Riff 3  play 4 times
|-------------------------------|
|-------------------------------|
|-------------------------------|
|-------------------------------|
|-7------7------7------8-8-5-8--|
|-5-5555-5-5555-5-5555-6-6-3-6--|
    ....   ....   ....
[ Tab from: http://www.guitaretab.com/a/alestorm/110774.html ]
Riff 4  play twice (once with each ending)                             
|------------------------------------|--------------|--------------|
|------------------------------------|-1st ending----|--2nd ending---|
|------------------------------------|--------------|--------------|
|-----------------------5-----5------|--------------|--------------|
|-7-----7-----3-5-7-----3-333-3-333--|-5------------|-2------------|
|-5-555-5-555-1-3-5-555--------------|-3-333333333--|-0-000000000--|
    ...   ...       ...   ...   ...      .........      .........
 
Riff 5  play twice
|----------------------------------------------|
|----------------------------------------------|
|----------------------------------------------|
|----------------------------------------------|
|-7-----7-----7---------320-7-----7-----5-3-7--|
|-5-555-5-555-5-555-333-----5-555-5-555-3-1-5--|
    ...   ...   ... ... ...   ...   ...       Hey!


Play Riff 4 twice (once with each ending)

Riff 6  play once
|------------------------------------------------------|
|------------------------------------------------------|
|------------------------------------------------------|
|------------------------------------------------------|
|-3-----3-----7--5-----5-----2------2------------------|
|-1-111-1-111-5--3-333-3-333-0-0000-0-0000-0000000000--|
    ...   ...      ...   ...   ....   .... ..........

Riff 7  play once
|---------------------------------------------------------------------------------------|
|---------------------------------------------------------------------------------------|
|---------------------------------------------------------------------------------------|
|----------------------5-----5---------------------------------------------5------------|
|-7----7-----3-5-7-----3-333-3-333-5------------7----7-----3-5-7-----3-----3-333-33-5-7-|
|-5-55-5-555-1-3-5-555-------------3-333333333--5-55-5-555-1-3-5-555-1-111-------11-3-5-|
    ..   ...       ...   ...   ...   .........    ..   ...       ...   ...   ...

Riff 4 x 2 (once with each ending)
Riff 2 x 1
Riff 3 x 2
Riff 4 x 2 (once with each ending)
Riff 6 x 1
Riff 7 x 1
Riff 4 x 6 (3 times with each ending)
Riff 6 x 1
Riff 7 x 2

Riff 8 (ending) x 1
|------------|
|------------|
|------------|
|---5--------|
|-3-3-33-5-7-|
|-1---11-3-5-|

Related for Over The Seas tab