Song name
# A B C D E F G H I J K L M N O P Q R S T U V W X Y Z

Alestorm - Captain Morgans Revenge tab

Alestorm – Captain Morgan’s Revenge

Tabbed by slayerized 88
Please send any comments, corrections, additions etc to hynes666@hotmail.com

Tune guitar down 2 steps to C

. = palm mute
h = hammer on
p = pull off

Intro – x 2
|------------|
|------------|
|------------|
|-----7------|
|-2---5---7--|
|-0-------5--|

Riff 1 – x 2
|--------|
|--------| tremolo picking – play each
|--------| note a lot of times
|--------|
|---5----|
|-0---5--|

Riff 2 - x 3
|------------------------------------not-sure-|
|--------------------------------------about--|
|------------------------------------this-bit-|
|---------------------3----3------------------|
|-5----5----5----5----1-11-1-11-3----0h1-1p0--|
|-3-33-3-33-5-55-5-55-----------1-11----------|
    ..   ..   ..   ..   ..   ..   .. 

Riff 3 – x 1
|--------------------------------|
|--------------------------------|
|--------------------------------|
|-3----3--------------1----------|
|-1-11-1-11-3----3----1-3-55555--|
|-----------1-11-1-11---1-33333--|
    ..   ..   ..   ..

Riff 4 – x 3
|---------------|
|---------------|
|---------------|
|-------5--5-7--|
|-5--3--3--3-5--|
|-3--1----------|

Riff 5 – x 1
|---------------|
|---------------|
|---------------|
|-------5—-5----|
|-5--3--3--3-7--|
|-3--1-------5--|

 
Riff 6 – x 3
|------------------------------------------|
|------------------------------------------|
|------------------------------------------|
|-7----7--------------5----5---------------|
|-5-55-5-55-7----7----3-33-3-33-5----5-----|
|-----------5-55-5-55-----------3-33-3-33--|
    ..   ..   ..   ..   ..   ..   ..   ..

Riff 7 – x 1
|---------------------------|
|---------------------------|
|---------------------------|
|-7----7--------------------|
|-5-55-5-55-7----7----3--5--|
|-----------5-55-5-55-1--3--|
    ..   ..   ..   ..

Riff 8 – x 4
|-----|-------------|--------------------------------|
|-1st  |----other----|--------------------------------|
|-time|----times----|--------------------------------|
|-----|-------------|-----------5----5---------------|
|-777-|-7----7------|-3----3----3-33-3-33-5----5-----|
|-555-|-5-55-5-55---|-1-11-1-11-----------3-33-3-33--|
          ..   ..       ..   ..   ..   ..   ..   ..

Riff 9 – x 1
|---------------------------|
|---------------------------|
|---------------------------|
|-7-7--5-5---7-7--5--3-2----|
|-5-5--3-3---5-5--3--1-0-5--|
|------------------------3--|

Riff 4 x 3
Riff 5 x 1
Riff 6 x 3
Riff 7 x 1
Riff 8 x 8 (under solo)

Riff 10 - x 2
|---------------------------------------------------------------------|
|---------------------------------------------------------------------|
|---------------------------------------------------------------------|
|---------------------------------------------------------------------|
|-3---7----7----7---------5----5----5--------10----10----10----10-----|
|-1---5-55-5-55-5-55-5787-3-33-3-33-3-33-357-8--88-8--88-8--88-8--88--|
        ..   ..   .. ....   ..   ..   ..        ..    ..    ..    ..

Riff 10 (continued)
|-------------------|
|-------------------|
|-------------------|
|-------------------|
|-8----8----3----5--|
|-6-66-6-66-1-11-3--|
    ..   ..   ..
 
Riff 11 – x 1
|-------------------|
|-------------------|
|-------------------|
|----------5--9-----|
|-7--5--7--3--7--7--|
|-5--3--5--------5--|

Riff 12 – x 4
|------------------------|-ending-|
|------------------------|-on the-|
|------------------------|-4th time|
|------------------------|---1-3--|
|-2------2----2------55--|-5-1-3--|
|-0-0000-0-00-0-0000-55--|-5------|
    ....   ..   ....      (not sure)

Riff 13 – x 4
|------------------------|-ending-|
|------------------------|-on the-|
|------------------------|4th time-|
|--------------------33--|--------|
|-5------5----5------33--|-7-5-3--|
|-3-3333-3-33-3-3333-----|-5-3-1--|
    ....   ..   ....

Riff 12 x 4
Riff 13 x 4

Riff 14 – x 1
|-------------------------|
|-------------------------|
|-------------------------|
|-------3--------7--3-----|
|-5--3--1--3--5--5--1--7--|
|-3--1-----1--3--------5--|

Riff 6 x 3
Riff 7 x 1

Riff 15 – x 1 (with keyboard)
|---------------------|
|---------------------|
|---------------------|
|-------5--------5----|
|-777--33--37--3-3-5--|
|-555--1---15--1---3--|

Riff 8 x 8

Riff 16
|----------|
|----------|
|----------|
|----------|
|-3--5—-7--|
|-1--3—-5--|

Tap to rate this tab
 
# A B C D E F G H I J K L M N O P Q R S T U V W X Y Z