Guitaretab - guitar tabs
Song name
# A B C D E F G H I J K L M N O P Q R S T U V W X Y Z

Alestorm - Nancy The Tavern Wench tab

Alestorm  Nancy The Tavern Wench

Tabbed by Slayerized 88
Please send any additions, corrections, comments etc to hynes666@hotmail.com

Tune guitar down 2 steps to C

. = palm mute

Riff 1  x 1
|------------------------|
|------------------------|
|------------------------|
|------------------------|
|-2-5-5-7-5-2-5-3-5-7-9--|
|-0-3-5-5-3-0-3-3-5-7-7--|
[ Tab from: http://www.guitaretab.com/a/alestorm/111079.html ]
Riff 2  x 1
|----------------------------------------------------------------|
|----------------------------------------------------------------|
|----------------------------------------------------------------|
|----------------------------------------------------------------|
|-2----2---5---5---5---5---7----5----2----2---5---5---3---5---7--|
|-0-00-0-0-3-3-3-3-5-5-5-5-5-55-3-33-0-00-0-0-3-3-3-3-3-3-5-5-7--|
    ..   .   .   .   .   .   ..   ..   ..   .   .   .   .   .

Riff 3  x 2
|----------------|
|----------------|
|----------------|
|-----------4----|
|-5--2--7-5-2-2--|
|-3--0--5-3---0--|

Riff 4  x 4
|----------|after|
|----------|-the-|
|----------|-3rd-|
|---7-5-4--|-time|
|-2-5-3-2--|-----|
|-0--------|-000-|

Riff 1 x 1
Riff 2 x 1
Riff 3 x 2
Riff 4 x 4
Riff 1 x 1
Riff 2 x 1
Riff 1 x 3 (under solo)
Riff 2 x 1
Riff 3 x 2
Riff 3 ending x 1 (last 4 chords)

Related for Nancy The Tavern Wench tab