Guitaretab - guitar tabs
Song name
# A B C D E F G H I J K L M N O P Q R S T U V W X Y Z

Alestorm - The Huntmaster tab

Alestorm  The Huntmaster

Tabbed by Slayerized 88
Please send any additions, corrections, comments etc to hynes666@hotmail.com

Tune guitar down 2 steps to C

. = palm mute

Riff 1 (not sure about this)  x 4
|---------------------------------------------------------------------------|
|---------------------------------------------------------------------------|
|---------------------------------------------------------------------------|
|---------------------------------------------------------------------------|
|-----5------------------8--------3------5------------------8--------10-----|
|-333---33-6-33-5-33-666---66-111----333---33-6-33-5-33-666---66-888----88--|
  ...   ..   ..   .. ...   .. ...    ...   ..   ..   .. ...   .. ...    ..

Riff 2  x 1
|-----------------------------------|
|-----------------------------------|
|-----------------------------------|
|-3-5-3-----------------------------|
|-1-3-1-3-5------5------5------5-3--|
|-------1-3-3333-3-3333-3-3333-3-1--|
            ....   ....   ....

Riff 3  x 2
|-----------------------------------------------------------------------------|
|-----------------------------------------------------------------------------|
|-----------------------------------------------------------------------------|
|--------------------------3------3------3------3-5------------------------3--|
|-5------5------5------5-3-1-1111-1-1111-1-1111-1-3-3------3------3------3-1--|
|-3-3333-3-3333-3-3333-3-1--------------------------1-1111-1-1111-1-1111-1----|
    ....   ....   ....       ....   ....   ....       ....   ....   ....

Riff 3 (continued)
|---------------------------|
|---------------------------|
|---------------------------|
|-1------1------3------3-3--|
|-1-1111-1-1111-3-3333-3-1--|
|---------------------------|
    ....   ....   ....
[ Tab from: http://www.guitaretab.com/a/alestorm/111080.html ]
Riff 4  x 1
|---------------------------------------------------------------|
|---------------------------------------------------------------|
|---------------------------------------------------------------|
|-8-------------------------------8-----------------------------|
|-6-8-3------3------3------3------6-8---------------------------|
|---6-1-1111-1-1111-1-1111-1-1111---6-888888888888888888888888--|
        ....   ....   ....   ....     ........................

Riff 5  x 2
|-----------------------------------------------|
|-----------------------------------------------|
|-----------------------------------------------|
|----------------------------------------3------|
|--------5--------5-3-5--------5---------1-3-5--|
|-333333-3-333333-3-1-3-333333-3-333333----1-3--|
  ......   ......       ......   ......

Riff 6  x 1
|--------|
|--------|
|--------|
|-1------|
|-1-3-5--|
|---1-3--|

Riff 1 x 2
Riff 2 x 1
Riff 3 x 2
Riff 4 x 1
Riff 5 x 2

Riff 7  x 1
|----------|
|----------|
|----------|
|-3-5-1-7--|
|-1-3-1-5--|
|----------|

Riff 8  x 3
|---------------------------not-sure--------------------------------------|
|----------------------------about----------------------------------------|
|----------------------------this-----------------------------------------|
|-----------------------------bit----------------------3--------7---------|
|-5--------5-8-7-3-5------------------5--------5-8-7-3-1-111111-5-555555--|
|-3-333333-3-6-5-1-3-333333-????????--3-333333-3-6-5-1--------------------|
    ......           ......             ......           ......   ......

Riff 9
|---------|
|---------|
|---------|
|-8-10-7--|
|-6-8-5--|
|---------|

Riff 10  x 1
|---------------------------not-sure--------------------------------------|
|----------------------------about----------------------------------------|
|----------------------------this-----------------------------------------|
|-----------------------------bit--------------------5-7-5----------------|
|-5--------5-8-7-3-5------------------5--------5-8-7-3-5-3-8-7-8-7-5-3-1--|
|-3-333333-3-6-5-1-3-333333-????????--3-333333-3-6-5-------6-5-6-5-3-1-1--|
    ......           ......             ......                         *

* = not sure about this last note

Riff 3 x 2 (second time hold the chords)
Riff 4 x 1
Riff 5 x 4
Riff 1 x 8

 
Riff 11  x 1
|-----------------------------|
|-----------------------------|
|-----------------------------|
|-3-5-3----3-5-3---3-5-3------|
|-1-3-1-3--1-3-1-3-1-3-1-3-5--|
|-------1--------1-------1-3--|

Related for The Huntmaster tab