Song name
# A B C D E F G H I J K L M N O P Q R S T U V W X Y Z

Alestorm - Over The Seas tab

Track 1
                                               |----3----|   |----3---|   
      Q     Q     E.   S  Q        Q     Q     E    E    E   E    E   E   
E||----------------------------|-----------------------------------------|
B||--------17----18---15-17----|--------17----15h--17p--15---------------|
G||--14------------------------|--14------------------------17p--16------|
D||----------------------------|-------------------------------------17--|
A||----------------------------|-----------------------------------------|
E||----------------------------|-----------------------------------------|


                                |----3----|   |----3---|              
   Q     Q     E.   S  Q        E    E    E   E    E   E   Q    Q     
----------------------------|----------------------------------------|
--------17----18---15-17----|--15h--17p--15--------------------------|
--14------------------------|----------------17p--16------14---------|
----------------------------|-------------------------17-------------|
----------------------------|----------------------------------------|
----------------------------|----------------------------------------|


                                            |----3----|   |----3---|   
   Q     Q     E.   S  Q        Q     Q     E    E    E   E    E   E   
----------------------------|-----------------------------------------|
--------17----18---15-17----|--------17----15h--17p--15---------------|
--14------------------------|--14------------------------17p--16------|
----------------------------|-------------------------------------17--|
----------------------------|-----------------------------------------|
----------------------------|-----------------------------------------|


                                                             PH          
                                |----3----|   |----3---|                 
   Q     Q     E.   S  Q        E    E    E   E    E   E     H           
----------------------------|------------------------------------------||
--------17----18---15-17----|--15h--17p--15----------------------------||
--14------------------------|----------------17p--16------<>14~--------||
----------------------------|-------------------------17---------------||
----------------------------|------------------------------------------||
----------------------------|------------------------------------------||




Duration Legend
---------------
W - whole
H - half
Q - quarter
E - 8th
S - 16th
T - 32nd
X - 64th
. - note dotted
Tap to rate this tab
# A B C D E F G H I J K L M N O P Q R S T U V W X Y Z