Alestorm - Keelhauled tab

The intro of Keelhauled by Alestorm on guitar (:

e |------13-13--11-13-14-13-11-13--13-11-------11-13-11----11-----------------|
b |---11---------------------------------14--14---------14----13-13-14-13-12--|
g |---------------------------------------------------------------------------|
d |---------------------------------------------------------------------------|
a |---------------------------------------------------------------------------|
E |---------------------------------------------------------------------------|

e |------13-13--11-13-14-13-11-13--13-11--------11-13--11----11--16-16-|
b |---11---------------------------------14--14-----------14-----------|
g |--------------------------------------------------------------------|
d |--------------------------------------------------------------------|
a |--------------------------------------------------------------------|
E |--------------------------------------------------------------------|


or like this:

e |--------------------------------------------------------------------|
b |----6-6--4-6-7-6-4-6--6-4-----4-6--4---4----------------------------|
g |--3-----------------------6-6--------6---5-5--6-5-3-----------------|
d |--------------------------------------------------------------------|
a |--------------------------------------------------------------------|
E |--------------------------------------------------------------------|

e |-----------------------------------------4-4------------------------|
b |----6-6--4-6-7-6-4-6--6-4-----4-6--4---4----------------------------|
g |--3-----------------------6-6--------6------------------------------|
d |--------------------------------------------------------------------|
a |--------------------------------------------------------------------|
E |--------------------------------------------------------------------|

enjoy :D
Tap to rate this tab
 
# A B C D E F G H I J K L M N O P Q R S T U V W X Y Z